» » »

Mumford And Sons, I Will Wait Tabs (ver.2)

Artists:  A B C D E F G H I J K L M N O P Q R S T U V W X Y Z # 

I Will Wait Tabs (ver.2)

Mumford And Sons Tabs
 Rating:
4/5 (4 votes)
I Will Wait lessons Tabs too difficult? Try these video lessons and learn fast
1
                I Will Wait by Mumford & Sons

Tuning: C A C G C E


This is the exact same way they play it live. If you want to play it in the same key as 
the one on the album, put a capo on the 1st fret and use the tabs the same in relation 
to the capo. Any questions or requests for other songs? Message me and I would love to help you.


Intro (2x)


e|--0---0---0---0---0---0-|
C|--0---0---0---0---0---0-|
G|--2---0---0---5---0---7-|
C|--0---0---0---0---0---7-|
A|--0---2---3---x---x---x-|
C|--x---x---0---5---4---7-|


Verse (2x)

e|---0---0---0---0-|
C|---0---0---0---0-|
G|---0---5---0---7-|
C|---0---0---0---7-|
A|---3---x---3---x-|
C|---0---5---0---7-|


Prechorus (Same as Intro) (2x)

e|--0---0---0---0---0---0-|
C|--0---0---0---0---0---0-|
G|--2---0---0---5---0---7-|
C|--0---0---0---0---0---7-|
A|--0---2---3---x---x---x-|
C|--x---x---0---5---4---7-|



Chorus (2x)

e|---0----0----0-|
C|---0----0----0-|
G|---0----5----7-|
C|---0----4----7-|
A|---3----x----x-|
C|---0----4----7-|


Transition

e|---0---0---0---0--|
C|---0---0---0---0--|
G|---0---0---0---0--|
C|---0---0---0---0--|
A|---3---5---7---10-|
C|---0---x---x---x--|



Verse (2x)

e|---0---0---0---0-|
C|---0---0---0---0-|
G|---0---5---0---7-|
C|---0---0---0---7-|
A|---3---x---3---x-|
C|---0---5---0---7-|


Chorus (4x)

e|---0----0----0-|
C|---0----0----0-|
G|---0----5----7-|
C|---0----4----7-|
A|---3----x----x-|
C|---0----4----7-|


Verse (2x)

e|---0---0---0---0-|
C|---0---0---0---0-|
G|---0---5---0---7-|
C|---0---0---0---7-|
A|---3---x---3---x-|
C|---0---5---0---7-|



Prechorus (Same as Intro) (2x)

e|--0---0---0---0---0---0-|
C|--0---0---0---0---0---0-|
G|--2---0---0---5---0---7-|
C|--0---0---0---0---0---7-|
A|--0---2---3---x---x---x-|
C|--x---x---0---5---4---7-|


Instrumental/Bridge (4x)

e|---0----0---0----0---0--0-|
C|---0----0---0----0---0--0-|
G|---0----12--9----5---5--7-|
C|---0----11--9----0---4--7-|
A|---3----x---x----x---x--x-|
C|---0----11--9----5---4--7-|


Chorus (4x)

e|---0----0----0-|
C|---0----0----0-|
G|---0----5----7-|
C|---0----4----7-|
A|---3----x----x-|
C|---0----4----7-|
            
Submit corrections

comments powered by Disqus
↑ Back to top | Mumford And Sons Tabs for I Will Wait. Lyrics for acoustic guitar and electric guitar. 1 Tablatures and chords are parodies/interpretations of the original songs. You may use it for private study, scholarship, research or language learning purposes only