>
 >
Below My Feet

Below My Feet Guitar Tabs

Mumford And Sons - Below My Feet chords, tabs, tablatures, lyrics

Guitar lessons | Add/correct | Request | Top 50 tabs Artists:  A B C D E F G H I J K L M N O P Q R S T U V W X Y Z 0-9

Below My Feet Guitar Tabs – Mumford And Sons

CD, Sheet music, Poster

Do you like Below My Feet? Share with your friends now
ChordsTabsTabs v2Ukulele
This is a tab I transcribed from their live performance at Warfield in Oct 2010. You can 
watch the video for further reference.


-------------------------------------------------------------------------------
-------------------------------------------------------------------------------

Tuning: Standard CAPO IV

Intro (played with Ben on piano)
   Em          C         G          D       Em      D       C        D       G
e|-------------------------------------------------------------------------------|
B|--8----8-8---8----8-8\--3---3-3---7---7-7/8---8-8\7---7-7\5---5-5--------------|
G|----0----------0----------0---------0-------0-------0-------0-----2---2-2--0~--|
D|--------------------------------------------------------------------0----------|
A|--7---7--7------------------------5--5--5/7--7--7\5--5--5\3--3--3--------------|
E|-------------8---8--8\--3--3--3-----------------------------------2--2--2--3~--|
          ***this is just the notes not the timing, listen to the song to get the rhythm

Verse

    G          C         Em         D
e|---------------------------------------------------------------------------|
B|-------------1---1-1-------------------------------------------------------|
G|--3---3-3------0-------0---0-0----2---2-2----------------------------------|
D|----0--------------------2----------0--------------------------------------|
A|-------------3--3--3-------------------------------------------------------|
E|--3--3--3--------------0--0--0----2--2--2----------------------------------|
            ***Here are the four chords used in the verse(s) and below is the
               order with lyrics...

          G          C                  G
You were cold as the blood through your bones
         C               G          G/F#   Em          (Walk down low E string)
And the light which led us from our chosen homes
   C        G
Well I was lost

           G
And now I sleep
           C              G
Sleep the hours and that I don't weep
        C                G     G/F#      Em
When all I knew was steeped in blackened holes
 C     G
I was lost


D   G     D    G
hm  hmm  hmm  hmm
C   Em   C   Em   D   G
hm  hmm  hm  hmm  hmm hmm

Chorus     ***Light pick

Em      C       G       D
Keep the earth below my feet
Em      C       G          D
For all my sweat, my blood runs weak
Em      C       G          D
Let me learn from where I have been
        C          Em     C           G
Keep my eyes to serve and hands to learn
        C          Em     C           G
Keep my eyes to serve and hands to learn

Verse 2
          ***This is slightly different.
     G          C          Em           D
e|---------------------------------------------------------------------------|
B|---0---0-0----1---1-1-----------0------------------------------------------|
G|-----0----------0--------0----0------2---2-2-------------------------------|
D|---------------------------2-----------0-----------------------------------|
A|--------------3--3--3------------------------------------------------------|
E|---3--3--3---------------0---0--0----2--2--2-------------------------------|

         G
So I was still
     C              G
I was under your spell
       C             G   G/F#    Em
When I was told by Jesus all was well
     C          G
So all must be well

              G
Just give me time
         C                G
You know your desires and mine
         C         G     G/F# Em
Wrap my flesh in ivory and in twine
   C           G
For I must be well


REPEAT CHORUS x1

         ***Strumming the chords in the "hands to learn" part of chorus
            and from this point on!

D     G      D   G

C    Em     C   Em     D    G
                       ah   ah

D     G
ah    ah
C    Em     C   Em     D    G
ah   ah     ah  ah    ah    ah


Em      C       G       D
Keep the earth below my feet
Em      C       G          D
For all my sweat, my blood runs weak
Em      C       G          D
Let me learn from where I have been
        C          Em     C           G
Keep my eyes to serve and hands to learn
D       C          Em     C           G
Keep my eyes to serve and hands to learn


D     G     D    G
ah   ah     ah   ah
C    Em     C   Em     D    G
ah   ah     ah  ah     ah   ah
D    G      C    Em    C   Em
D    G
ah   ah

ah  ah.....

Cheers for learning a new song!





Comments


Popular Mumford And Sons tabs & chords
Awake My Soul 4 Chords
Ghosts That We Knew Chords
I Take Your Hand Chords
Nothing Is Written Chords
Timshel 3 Chords
Awake My Soul 3 Tabs
Babel 2 Tabs
To Darkness Tabs
Not With Haste Ukulele
This Train Is Bound For Glory Ukulele


Song lyrics



↑ Back to top | Tablatures and chords are parodies/interpretations of the original songs. You may use it for private study, scholarship, research or language learning purposes only
© 2014 AZChords.com Contact us | Privacy policy | DMCA | Add/correct tabs | Request tabs | Top 50 tabs