» » »

A World So Cold Bass tabs (ver.1)

Artists:  A B C D E F G H I J K L M N O P Q R S T U V W X Y Z # 

A World So Cold Bass tabs (ver.1)

Mudvayne
Rating:
0/5 (0 votes)

Tabs too difficult? Try these video lessons and learn fast.
                "                              World so Cold
                                 Mudvayne
                     The End of all Things to Come
                       Tuning - C,G,C,F (Drop C)
 
 This song kicks ass! This is how i play it and it sounds right to me so f**k
off if you dont like it! Its in order from beginning to end. Listen to the song
for timing.

   Key:
 / or \ - slide
 h - Hammer-on
 p - Pull-off
 S - Slap
 P - Pop
                                 Intro
F|------------------------------|-------------------------|
C|-7---9---10---12---10-10---9--|-7---9---10---9---10-9-7-|
G|------------------------------|-------------------------|
C|------------------------------|-------------------------|

F|-------------------------|-------------------5-4-----|
C|----------7---9---10-9-7-|-----------------5-----5---|
G|-8---10------------------|-7---8---10---/7---------5-|
C|-------------------------|---------------------------|

F|-----------------------------|--------------------------|
C|-----------------------------|--------------------------|
G|-----------------------------|------------------3333222-|
C|-3-3---3-3---3-3------//12\\-|-3-3---3-3---3-3----------|

F|-------------------------------|------------------------------0-|
C|-----------------------0-------|------------------------0-------|
G|-------------------------X---0-|--------------------------------|
C|--0--X-X--2h3p2-0--X-0-----0---|-0--X-X—2h3p2-0-X-X--/3---0-----|
    S  S S  S S S S  S S P S S P   S  S S S S S S S S   S P S   P

F|---------------------------|---------------------------|
C|---------------------------|---------------------------|
G|------------------3333222--|------------------3333222--|
C|-3-3---3-3---3-3-----------|-3-3---3-3---3-3-----------|

F|-------------------------------|--------------------------------|
C|-----------------------0-------|------------------------0-----0-|
G|-------------------------X---0-|--------------------------------|
C|--0--X-X--2h3p2-0--X-0-----0---|-0--X-X—2h3p2-0-X-X--/3---0-----|
    S  S S  S S S S  S S P S S P   S  S S S S S S S S   S P S   P


F|--------------------------------|-------------------------|
C|-7---9---10---12---10--9--7-----|----------/5-------------|
G|--------------------------------|-------------------------|
C|--------------------------------|-------------------------|

F|----------------------------|-----------------------------|
C|-7---9---10---12---10--9--7-|-9---7---9---10-9-7----------|
G|----------------------------|-----------------------------|
C|----------------------------|-----------------------------|

F|---------------------------|-------------------5-4--------|
C|----------7---9---10-9-7---|-----------------5-----5------|
G|-8---10--------------------|-7---8---10---/7---------5----|
C|---------------------------|------------------------------|

F|-------------------------------|---------/14-12-------------------|
C|-7---9---10---12---10-10--9--7-|-9---7----------15-14-14h15p14-10-|
G|-------------------------------|----------------------------------|
C|-------------------------------|----------------------------------|

F|---------------------------|-------------------5-4------|
C|------------7---9---10-9-7-|-----------------5-----5----|
G|-7-8---10------------------|-7---8---10---/7---------5--|
C|---------------------------|----------------------------|

F|---------------------------|---------------------------|
C|*--------------------------|---------------------------|
G|*-----------------3333222--|------------------3333222--|
C|-3-3---3-3---3-3-----------|-3-3---3-3---3-3-----------|

F|-------------------------------|------------------------------0-|
C|-----------------------0-------|------------------------0------*| x3
G|-------------------------X---0-|-------------------------------*|
C|--0--X-X--2h3p2-0--X-0-----0---|-0--X-X—2h3p2-0-X-X--/3---0-----|
    S  S S  S S S S  S S P S S P   S  S S S S S S S S   S P S   P

F|-------------------------------|---------------------------|
C|-------------------------------|---------------------------|
G|----------------------//10\\---|------------------3333222--|
C|-3-3---3-3---3-3---------------|-3-3---3-3---3-3-----------|

                                 Interlude
F|---------------------|--------------------------------|
C|*--------------------|--------------------------------|
G|*--------------------|-333--3--3h5-3------------------|
C|--000--0--0000--3330-|----------------5-0---0-2h3-0---|

F|-----3---------5---------------3---------2-----------------|
C|---3---------5----------5----3---------2------------------*| x3
G|-1---------3----------5----1---------0--------0h1p0-0-----*|
C|--------------------5----------------------------------5---|

F|---------------------|--------------------------------|
C|---------------------|--------------------------------|
G|---------------------|-333--3--3h5-7-5-3--3-5-3/1-----|
C|--000--0--0000--3330-|--------------------------------|

F|-----3---------5-----------------3---------2----------------|
C|---3---------5-----------5-----3---------2------------------|
G|-1---------3-----------5---0-1---------0--------0--1--0-----|
C|-------------------0-5-----------------------------------5--|

                                 Bass Solo
F|---------------------------------------------------------|
C|---------------------------------------------------------|
G|------5------5-7-7h8p7-5---3--------3h5-3----------------|
C|-0-00------0-------------5--------5--------5--0---0-3-0--|

F|------3--------5------------------3------2------------|
C|-----3--------5-------5--------3-------2--------------|
G|-1--------3---------5-------1--------0-----0-0h1p0----|
C|------------------5-----5---------------------------5-|

F|----------------------------------------|
C|----------------------------------------|
G|-------------332000000000---0-2-3-2-0---|
C|-333333333333-------------5-----------2-|
	
F|----------------------------------------|
C|----------------------------------------|
G|-------------332000000023---------------|
C|-333333333333-------------0-------------|

F|----------------------------------------|
C|----------------------------------------|
G|-------------332000000000---0-2-3-2-0---|
C|-333333333333-------------5-----------2-|

F|----------------------------------------|
C|----------------------------------------|
G|-------------332000000023---------------|
C|-333333333333-------------00000000------|

F|------------------------9--------------------|
C|---------332200-----/999----/999-9h10p9-7----|
G|--------3------22000-----000-----------------|
C|-3333333-----------------------------------2-|

F|----------------------------------------|
C|----------------------------------------|
G|-------------332000000023---------------|
C|-333333333333-------------00000000------|

F|------------------------9---14-12----------------------|
C|---------332200-----/999---14-----15-14-14h15p14-10----|
G|--------3------22000-----00----------------------------|
C|-3333333---------------------------------------------0-|

F|----------------------------------------|
C|----------------------------------------|
G|-------------332000000023---------------|
C|-333333333333-------------0-------------|

              Outro
F|-------------------------------|-----2-----------2-----------|
C|*-----3-----------3------------|---2------2----2-------------|
G|*---3-----------3------3---3-2-|-0----------00-------0-2-3-2-|
C|--3--------3-33----------5-----|-----------------------------|

F|------------------------------|-----2-----------------------|
C|-----3-----------3------------|---2------------------------*| until end
G|---3------3----3------3---3-2-|-0---------2-3--------------*|
C|-3----------33----------5-----|---------------0----2-0-2h3--|

 Thats the whole song. Ill try to get some more mudvayne songs from
the new CD tabbed out.........................when i feel like it.
"            
Tabs too difficult? Try these video lessons and learn fast.




comments powered by Disqus
↑ Back to top | Tablatures and chords are parodies/interpretations of the original songs. You may use it for private study, scholarship, research or language learning purposes only