>
 >
Tv Radio

Tv Radio Guitar Tabs

Mudvayne - Tv Radio chords, tabs, tablatures, lyrics

Guitar lessons | Add/correct | Request | Top 50 tabs Artists:  A B C D E F G H I J K L M N O P Q R S T U V W X Y Z 0-9

Tv Radio Guitar Tabs – Mudvayne

CD, Sheet music, Poster

Do you like Tv Radio? Share with your friends now
Bass TabsBass Tabs v2Tabs
Band:MuDvAyNe
Album:Lost And Found
Tuning:Drop-C

4x clean
D|----------------|
A|----------------|
F|-15----14----12-|
C|----13----13----|
G|----------------|
C|----------------|

Versex4 distorted
D|-------------|
A|-------------|
F|-------------|
C|-8-8-5-5-7-7-|
G|-6-6-6-6-6-6-|
C|-------------|

3x                then
D|---------------|-------------|
A|---------------|-------------|
F|---------------|-------------|
C|---------------|-------------|
G|-8-8-7-7-10-10-|-8-8-7-7-5-5-|
C|-8-8-7-7-10-10-|-8-8-7-7-5-5-|

4x
D|-------------|
A|-------------|
F|-------------|
C|-8-8-5-5-7-7-|
G|-6-6-6-6-6-6-|
C|-------------|

3x                then
D|---------------|-------------|
A|---------------|-------------|
F|---------------|-------------|
C|---------------|-------------|
G|-8-8-7-7-10-10-|-8-8-7-7-5-5-|
C|-8-8-7-7-10-10-|-8-8-7-7-5-5-|

4x
D|-------------|
A|-------------|
F|-------------|
C|-8-8-5-5-7-7-|
G|-6-6-6-6-6-6-|
C|-------------|

3x                then
D|---------------|-------------|
A|---------------|-------------|
F|---------------|-------------|
C|---------------|-------------|
G|-8-8-7-7-10-10-|-8-8-7-7-5-5-|
C|-8-8-7-7-10-10-|-8-8-7-7-5-5-|

4x
D|-------------|
A|-------------|
F|-------------|
C|-8-8-5-5-7-7-|
G|-6-6-6-6-6-6-|
C|-------------|

3x                then
D|---------------|-------------|
A|---------------|-------------|
F|---------------|-------------|
C|---------------|-------------|
G|-8-8-7-7-10-10-|-8-8-7-7-5-5-|
C|-8-8-7-7-10-10-|-8-8-7-7-5-5-|

Chorus
D|-------------------------------|
A|-6-6-6-------------------------|
F|-7-7-7-------------------------|
C|-X-X-X-------------------------|
G|-5-5-5-------------------------|
C|--------0-0-0--8-7-0-8-7-0-5-7-|

D|---------------------------------|
A|---------------------------------|
F|---------------------------------|
C|-12-12-12------------------------|
G|-10-10-10------------------------|
C|-10-10-10--0-0-0-8-7-0-8-7-0-5-7-|

D|----------------------|
A|----------------------|
F|----------15----------|
C|-10-10-10-13-13-13-13-|
G|-8--8--8--13-13-13-13-|
C|-8--8--8--13-13-13-13-|
palm mute   .  .  .  .

D|---------------------------------|
A|---------------------------------|
F|----------17-------15------------|
C|-10-10-10-13-13-13-13-13-13-13-0-|
G|-8--8--8--13-13-13-13-13-13-13-0-|
C|-8--8--8--13-13-13-13-13-13-13---|
pm             .  .  .  .  .

D|-------------------------|
A|-------------------------|
F|----------15-------------|
C|-10-10-10-13-13-13-X-X-X-|
G|-8--8--8--13-13-13-X-X-X-|
C|-8--8--8--13-13-13-X-X-X-|
pm          .  .  .  . . .

D|------------------|
A|------------------|
F|------------------|
C|-3-2-0-5-7-0-3-0*-|
G|-3-2-0-5-7-0-3-0*-|
C|-3-2-0-5-7-0-3-0*-|
* - replace the last note with 5 instead of being open.

Verse,then Chorus.....Then:


D|-----------------|
A|-----------------|
F|-----------------|
C|-5-5-5-5-5-5-5-5-|
G|-----------------|
C|-----------------|


2x
D|-----------------|-----------------|
A|-----------------|-----------------|
F|-----------------|-----------------|
C|-------------5-5-|-5-5-5-5-5-5-5-5-|
G|-0-1-1-1-1-1-----|-----------------|
C|-0-1-1-1-1-1-----|-----------------|

D|-----------------|-----------------|
A|-----------------|-----------------|
F|-----------------|-----------------|
C|-------------5-5-|-5-5-5-5-8-8-8-8-|
G|-0-1-1-1-1-1-----|-----------------|
C|-0-1-1-1-1-1-----|-----------------|

D|-----------------|-----------------|
A|-----------------|-----------------|
F|-----------------|-----------------|
C|-------------5-5-|-5-8-8-8-7-7-5-5-|
G|-0-1-1-1-1-1-----|-----------------|
C|-0-1-1-1-1-1-----|-----------------|

D|--------------------------------------------|
A|--------------------------------------------|
F|--------------12-12-12-12-12-12-12-12-12-12-|
C|--------------X--X--X--X--X--X--X--X--X--X--|
G|--------------10-10-10-10-10-10-10-10-10-10-|
C|-0-1-1-1-1-0--------------------------------|

D|--------------------------|
A|--------------------------|
F|--------------12-12-12-12-|
C|--------------X--X--X--X--|
G|--------------10-10-10-10-|
C|-0-1-1-1-1-0--------------|

D|--------------------------------------------|
A|--------------------------------------------|
F|--------------12-12-12-12-12-12-15-15-15-15-|
C|--------------X--X--X--X--X--X--X--X--X--X--|
G|--------------10-10-10-10-10-10-13-13-13-13-|
C|-0-1-1-1-1-0--------------------------------|

D|--------------------------------------------|
A|--------------------------------------------|
F|--------------12-12-12-15-15-15-14-14-12-12-|
C|--------------X--X--X--X--X--X--X--X--X--X--|
G|--------------10-10-10-10-13-13-12-12-10-10-|
C|-0-1-1-1-1-0--------------------------------|

 Buy The Official Sheet Music 
 Is this a bad tab? Click here to report it 
 

Band: Mudvayne

Fig. 1
The chord (just to make things easier)

CGCFAD
|||1|| 12th
||2|||
|||3||
|||4||

4x clean
D|----------------|
A|----------------|
F|-15----14----12-|
C|----13----13----|
G|----------------|
C|----------------|


Fig. 2
CGCFAD
||1||| 5th
|2||||
||3|||
||4|||

4x distorted
D|-------------|
A|-------------|
F|-------------|
C|-8-8-5-5-7-7-|
G|-6-6-6-6-6-6-|
C|-------------|

Fig. 3

3x                then
D|---------------|-------------|
A|---------------|-------------|
F|---------------|-------------|
C|---------------|-------------|
G|-8-8-7-7-10-10-|-8-8-7-7-5-5-|
C|-8-8-7-7-10-10-|-8-8-7-7-5-5-|

Fig. 2

4x
D|-------------|
A|-------------|
F|-------------|
C|-8-8-5-5-7-7-|
G|-6-6-6-6-6-6-|
C|-------------|

Fig. 3

3x                then
D|---------------|-------------|
A|---------------|-------------|
F|---------------|-------------|
C|---------------|-------------|
G|-8-8-7-7-10-10-|-8-8-7-7-5-5-|
C|-8-8-7-7-10-10-|-8-8-7-7-5-5-|

Fig. 2

4x
D|-------------|
A|-------------|
F|-------------|
C|-8-8-5-5-7-7-|
G|-6-6-6-6-6-6-|
C|-------------|

Fig. 3

3x                then
D|---------------|-------------|
A|---------------|-------------|
F|---------------|-------------|
C|---------------|-------------|
G|-8-8-7-7-10-10-|-8-8-7-7-5-5-|
C|-8-8-7-7-10-10-|-8-8-7-7-5-5-|

Fig. 2

4x (i\'m overdosing on realityyyy)
D|-------------|
A|-------------|
F|-------------|
C|-8-8-5-5-7-7-|
G|-6-6-6-6-6-6-|
C|-------------|

Fig. 3

3x dont stop the pain...
D|---------------|-------------|
A|---------------|-------------|
F|---------------|-------------|
C|---------------|-------------|
G|-8-8-7-7-10-10-|-8-8-7-7-5-5-|
C|-8-8-7-7-10-10-|-8-8-7-7-5-5-|

Fig. 4 Chorus

CGCFAD
|1x||| 5th
||x|2|
||x3||
||x|||

D|-------------------------------|
A|-6-6-6-------------------------|
F|-7-7-7-------------------------|
C|-X-X-X-------------------------|
G|-5-5-5-------------------------|
C|--------0-0-0--8-7-0-8-7-0-5-7-|

D|---------------------------------|
A|---------------------------------|
F|---------------------------------|
C|-12-12-12------------------------|
G|-10-10-10------------------------|
C|-10-10-10--0-0-0-8-7-0-8-7-0-5-7-|

Fig. 4b

D|----------------------|
A|----------------------|
F|----------15----------|
C|-10-10-10-13-13-13-13-|
G|-8--8--8--13-13-13-13-|
C|-8--8--8--13-13-13-13-|
palm mute   .  .  .  .

D|---------------------------------|
A|---------------------------------|
F|----------17-------15------------|
C|-10-10-10-13-13-13-13-13-13-13-0-|
G|-8--8--8--13-13-13-13-13-13-13-0-|
C|-8--8--8--13-13-13-13-13-13-13---|
pm             .  .  .  .  .

D|-------------------------|
A|-------------------------|
F|----------15-------------|
C|-10-10-10-13-13-13-X-X-X-|
G|-8--8--8--13-13-13-X-X-X-|
C|-8--8--8--13-13-13-X-X-X-|
pm          .  .  .  . . .

D|------------------|
A|------------------|
F|------------------|
C|-3-2-0-5-7-0-3-0*-|
G|-3-2-0-5-7-0-3-0*-|
C|-3-2-0-5-7-0-3-0*-|
* - replace the last note with 5 instead of being open.

Repeat first verse followed by the chorus

after chorus

Fig. 5

D|-----------------|
A|-----------------|
F|-----------------|
C|-5-5-5-5-5-5-5-5-|
G|-----------------|
C|-----------------|

Fig. 6
2x
D|-----------------|-----------------|
A|-----------------|-----------------|
F|-----------------|-----------------|
C|-------------5-5-|-5-5-5-5-5-5-5-5-|
G|-0-1-1-1-1-1-----|-----------------|
C|-0-1-1-1-1-1-----|-----------------|

D|-----------------|-----------------|
A|-----------------|-----------------|
F|-----------------|-----------------|
C|-------------5-5-|-5-5-5-5-8-8-8-8-|
G|-0-1-1-1-1-1-----|-----------------|
C|-0-1-1-1-1-1-----|-----------------|

D|-----------------|-----------------|
A|-----------------|-----------------|
F|-----------------|-----------------|
C|-------------5-5-|-5-8-8-8-7-7-5-5-|
G|-0-1-1-1-1-1-----|-----------------|
C|-0-1-1-1-1-1-----|-----------------|

D|--------------------------------------------|
A|--------------------------------------------|
F|--------------12-12-12-12-12-12-12-12-12-12-|
C|--------------X--X--X--X--X--X--X--X--X--X--|
G|--------------10-10-10-10-10-10-10-10-10-10-|
C|-0-1-1-1-1-0--------------------------------|

D|--------------------------|
A|--------------------------|
F|--------------12-12-12-12-|
C|--------------X--X--X--X--|
G|--------------10-10-10-10-|
C|-0-1-1-1-1-0--------------|

D|--------------------------------------------|
A|--------------------------------------------|
F|--------------12-12-12-12-12-12-15-15-15-15-|
C|--------------X--X--X--X--X--X--X--X--X--X--|
G|--------------10-10-10-10-10-10-13-13-13-13-|
C|-0-1-1-1-1-0--------------------------------|

D|--------------------------------------------|
A|--------------------------------------------|
F|--------------12-12-12-15-15-15-14-14-12-12-|
C|--------------X--X--X--X--X--X--X--X--X--X--|
G|--------------10-10-10-10-13-13-12-12-10-10-|
C|-0-1-1-1-1-0--------------------------------|

3x clean
D|----------------|
A|----------------|
F|-15----14----12-|
C|----13----13----|
G|----------------|
C|----------------|

3x distortion     then
D|---------------|-------------|
A|---------------|-------------|
F|---------------|-------------|
C|---------------|-------------|
G|-8-8-7-7-10-10-|-8-8-7-7-5-5-|
C|-8-8-7-7-10-10-|-8-8-7-7-5-5-|

3x clean
D|----------------|
A|----------------|
F|-15----14----12-|
C|----13----13----|
G|----------------|
C|----------------|

3x distiortion    then
D|---------------|-------------|
A|---------------|-------------|
F|---------------|-------------|
C|---------------|-------------|
G|-8-8-7-7-10-10-|-8-8-7-7-5-5-|
C|-8-8-7-7-10-10-|-8-8-7-7-5-5-|

(Chorus)

Outro

D|---------------------------------------------|
A|---------------------------------------------|
F|---------------------------------------------|
C|-7-7-7-7-7-7-7-7-8-8-8-8-10-10-10-10-0-0-0-0-|
G|-7-7-7-7-7-7-7-7-8-8-8-8-10-10-10-10-0-0-0-0-|
C|-7-7-7-7-7-7-7-7-8-8-8-8-10-10-10-10-0-0-0-0-|

D|-----------------------------------------------|
A|-----------------------------------------------|
F|-----------------------------------------------|
C|-3-3-3-3-8-7-5-7-7-7-7-7-7-7-7-8-8-8-8-5-5-5-5-|
G|-3-3-3-3-8-7-5-7-7-7-7-7-7-7-7-8-8-8-8-5-5-5-5-|
C|-3-3-3-3-8-7-5-7-7-7-7-7-7-7-7-8-8-8-8-5-5-5-5-|

D|----------------------------|
A|----------------------------|
F|----------------------------|
C|-0--------------------------|
G|-0--------------------------|
C|-0--------------------------|

                                        -Christian J. Mican





Comments


Popular Mudvayne tabs & chords
Nothing To Gain 3 Bass Tabs
Nothing To Gein 2 Bass Tabs
World So Cold 3 Bass Tabs
Dig 3 Tabs
Digggggggg Tabs
Everything And Nothing Tabs
Fall Into Sleep 1 Tabs
Forget To Remember 4 Tabs
Pharmaecopia Tabs
World So Cold 2 Tabs


Song lyrics



↑ Back to top | Tablatures and chords are parodies/interpretations of the original songs. You may use it for private study, scholarship, research or language learning purposes only
© 2014 AZChords.com Contact us | Privacy policy | DMCA | Add/correct tabs | Request tabs | Top 50 tabs