>
 >
Solve Et Coagula 2

Solve Et Coagula 2 Guitar Tabs

Mudvayne - Solve Et Coagula 2 chords, tabs, tablatures, lyrics

Guitar lessons | Add/correct | Request | Top 50 tabs Artists:  A B C D E F G H I J K L M N O P Q R S T U V W X Y Z 0-9

Solve Et Coagula 2 Guitar Tabs – Mudvayne

CD, Sheet music, Poster

Do you like Solve Et Coagula 2? Share with your friends now
Bass TabsTabsTabs v2Tabs v3
Solve Et Coagula
Tuning: B-F#-B-E-G#-C#

Intro:
2:-9-9-9-9-9-9-9-9-9-9-9-9-9-9-9-9--------
3:-8-8-8-8-8-8-8-8-8-8-8-8-8-8-8-8-5-5-4-4
4:-6-6-6-6-6-6-6-6-6-6-6-6-6-6-6-6-3-3-2-2
5:---------------------------------3-3-2-2
6:---------------------------------3-3-2-2

Chorus:
4:-33330-02320-230
5:-33330-02320-230
6:-33330-02320-230

Repeat that 3 times then the 4th time:

4:-33330-02320
5:-33330-02320
6:-33330-02320

Verse:
3:------5/7-----5/7-7------5/7-----8/7
4:-0000-x-x-000-x-x-x-0000-x-x-000-x-x
5:-0000-3/5-000-3/5-5-0000-3/5-000-6/5
6:-0000-----000-------0000-----000----
p.m....     ...       ....     ...

Verse Fill:
3:-----------------------8
4:-0-0-0-0-0-0h3p0-0-0-0-x
5:-0-0-0-0-0-0h3p0-0-0-0-6
6:-0-0-0-0-0-0h3p0-0-0-0--

Bridge:
5:-5-----------5-----------5---------------5---------------5------
6:---3-2-0-2-3---3-2-0-2-3---3-2-0-3-3-3-3---3-3-3-2-2-2-2---2-2-2

Bridge Fill:
3:----------------------5
4:-0-0-0-2-3-2-0-0-0-00-x
5:-0-0-0-2-3-2-0-0-0-00-3
6:-0-0-0-2-3-2-0-0-0-00--

Riff:
4:-3-3-3-0-0-0-2-2-2-0-0-0-2-2-3-3
5:-3-3-3-0-0-0-2-2-2-0-0-0-2-2-3-3
6:-3-3-3-0-0-0-2-2-2-0-0-0-2-2-3-3
p.m...............................





Comments


Popular Mudvayne tabs & chords
-1 1 Bass Tabs
Determined 2 Bass Tabs
12:97:24:99 Tabs
Amor Amor Tabs
Cradle Tabs
Do What You Do Intro 1 Tabs
Fish Out Of Water Tabs
Fucking Determined Tabs
Mercy, Severity Tabs
Mercy, Severity 1 Tabs


Song lyrics



↑ Back to top | Tablatures and chords are parodies/interpretations of the original songs. You may use it for private study, scholarship, research or language learning purposes only
© 2014 AZChords.com Contact us | Privacy policy | DMCA | Add/correct tabs | Request tabs | Top 50 tabs