» » »

Mudvayne, Skrying Bass tabs (ver.1)

Artists:  A B C D E F G H I J K L M N O P Q R S T U V W X Y Z # 

Skrying Bass tabs (ver.1)

Mudvayne Tabs
 Rating:
4/5 (4 votes)
Skrying  lessons Tabs too difficult? Try these video lessons and learn fast
1
                (1)
Tuning (low to high): GCGCF


Intro/Verse:
F|----------|---------------------|-------|
C|----------|-*-----------------*-|-------|
G|----------|---------------------|-------|
C|-1---0----|-*-1-0-------0-3-1-*-|-3p1p0-|
G|----------|-------3---3---------|-------|



Pre-Chorus:
F|-------------------------|
C|-----------------------6-|
G|-------------------6-7---|
C|-6/7/6-6/7/6-6/7/6-------|
G|-------------------------|



Bridge:
F|-----------------------|-------------------|
C|-*-------------------*-|-----------------6-|
G|-----------------------|-------------6-7---|
C|-*-6/7/6-6/7/6-------*-|-6/7/6-6/7/6-------|
G|---------------x-x-x---|-------------------|



Solo:
F|---------------------------------------------|
C|---------------------------------------------|
G|-17-17-15-17-18-17-15~--13-12----------------|
C|------------------------------12-13-13-12-13-|
G|---------------------------------------------|
cont.
F|---------------------------------------------|
C|------------------------------------------15-|
G|-17-17-15-17-18-17-15~--12-13----------------|
C|------------------------------12-13-13-12----|
G|---------------------------------------------|



Hard Riff:
F|--------------------------------|
C|--------------------------------|
G|-5-3-5-3-5-6-5-3--0-1-----------|
C|----------------------0-1-1-0-1-|
G|--------------------------------|
cont.
F|--------------------------------|
C|------------------------------3-|
G|-5-5-3-5-6-5-3--0-1-------------|
C|----------------------0-1-1-0---|
G|--------------------------------|



Interlude:
F|----------|----|-----------|----|
C|----------|----|-----------|----|
G|-2--------|----|-----------|----|
C|---2-0-1^-|----|-----------|----|
G|----------|-xx-|-1111-1111-|-xx-|
                   For each "1" hit the string with your thumb then your little finger quickly after
            
Submit corrections

comments powered by Disqus
↑ Back to top | Mudvayne Bass for Skrying. Lyrics for acoustic guitar and electric guitar. 1 Tablatures and chords are parodies/interpretations of the original songs. You may use it for private study, scholarship, research or language learning purposes only