» » »

Mudvayne, Severed Tabs (ver.3)

Artists:  A B C D E F G H I J K L M N O P Q R S T U V W X Y Z # 

Severed Tabs (ver.3)

Mudvayne Tabs
Rating:
0/5 (0 votes)
Severed lessons Tabs too difficult? Try these video lessons and learn fast
                SEVERED

B tuning check my other tabs for correct tunning ipf or -1-
INTRO:
|----------------------------------------------|
|-----16---------------------------------------|
|---15--15-15-15-15-15-15-15-15-14-14-14-14-14-|
|-14-------------------------------------------|
|----------------------------------------------|
|----------------------------------------------|

2nd intro
|-------------------------------------------------------------------|
|------16-------------------16--------------------------------------|
|----15-15-14-14-14-14-15-15-14-14-14-14-------------------------------
|-14-------------------------------------13-12-13-----------------1-0-1
|----------------------------------------13-12-13-0-0-0-0-0-0-0-0-1-0-1
|----------------------------------------13-12-13-0-0-0-0-0-0-0-0-1-0-1
                                                  .......pm......
VERSE: (palm mute)
|-----------------|
|-----------------|
|-----------------|
|-0-0-0--00-0-0-0-|
|-0-0-0--00-0-0-0-|
|-0-0-0--00-0-0-0-|

BRIDGE:
|----------------------------------------|
|----------------------------------------|
|---------------------4-5--55--5-5--5-5-|
|-1-1--1-1--1-1--1-1--3-3--3-3--3-3--3-3-|
|-1-1--1-1--1-1--1-1--3-3--3-3--3-3--3-3-|
|-1-1--1-1--1-1--1-1--3-3--3-3--3-3--3-3-|

FILL: (palm mute)
|-----------------|
|-----------------|
|-----------------|
|-0-0-0-0-0-0-0-0-|
|-0-0-0-0-0-0-0-0-|
|-0-0-0-0-0-0-0-0-|

CHORUS:
|-------------------------------------------------------|
|-------------------------------------------------------|
|-------------------------------------------------------|
|-------------------------------10-9-7------------13\12-|
|-8-8-8-8-10-8-8-8-8-8-8-10-8-8--8-7-5-8-8-8-10-8-11\10-|
|-8-8-8-8-10-8-8-8-8-8-8-10-8-8--------8-8-8-10-8-------|

|--------------------|
|--------------------|
|--------------------|
|---------10\9\7-----|
|-8-8-8-8--8\7\5-8-8-|
|-8-8-8-8--------8-8-|

VERSE 2:
|------------------|
|------------------|
|----14----14------|
|-15----15----14~~-|
|------------------|
|------------------|

FILL 2:
|-------|
|-------|
|-------|
|-X-<3>-|
|-X-----|
|-X-----|

FILL 3:
|-----|
|-----|
|-----|
|-----|
|-----|
|-1/8-|

INTERLUDE:
|----------------------------------------------------------------------|
|---------------------------------------------------6-6----------------|
|---4-5-4-7-----------------4-5---------------4-5-7------------------5-|
|-0-------------3-2-2-2-2-0---------0-2-2-2-0-------------<3>--<3>---5-|
|-0---------2/3-3-2-2-2-2-0-----2/3-0-2-2-2-0-----------00---00---00-3-|
|-0-------------3-2-2-2-2-0---------0-2-2-2-0-----------00---00---00---|
PM              . . . . .           . . . .             ..   ..   ..

FILL 4:
|---|
|---|
|---|
|-5-|
|-5-|
|-5-|

INTERLUDE 2: (guitar 1) (w/ effect)
|-----------------------------------|
|-----------------------------------|
|-6\5-5-5-5-5-5-5-6\5-5-5-5-5-10/12-|
|-X-X-X-X-X-X-X-X-X-X-X-X-X-X--X--X-|
|-4\3-3-3-3-3-3-3-4\3-3-3-3-3--8/10-|
|-----------------------------------|

INTERLUDE 2: (guitar 2)
|-----------------------------------------------------------------|
|-----------------------------------------------------------------|
|-----------------------------------------------------------------|
|-0-0-0-0-0--0-0-0-0-0--0-0-0-0-0-0-0-0-0-0--0-0-0-0-0--0-0-0-0-0-|
|-0-0-0-0-0--0-0-0-0-0--0-0-0-0-0-0-0-0-0-0--0-0-0-0-0--0-0-0-0-0-|
|-0-0-0-0-0--0-0-0-0-0--0-0-0-0-0-0-0-0-0-0--0-0-0-0-0--0-0-0-0-0-|

FILL 5:
|----|
|----|
|----|
|-10-|
|-10-|
|-10-|

INTERLUDE 3: (guitar 1) (w/ delay)
|--------------------------------------------|
|--------------------------------------------|
|--------------------------------------------|
|-----10---11-10--------------10--11-10------|
|---10--10------10-11p10\8--10--10-----10/11-|
|-11----------------------10-----------------|

INTERLUDE 3: (guitar 2)
|---------------|
|---------------|
|---------------|
|-11-11---10-10-|
|-11-11---10-10-|
|-11-11---10-10-|

INTERLUDE 3 FILL: (guitar 1) (w/ delay)
|---------------------------|
|---------------------------|
|---------------------------|
|-----10---11-13-11---------|
|---10--10----------11p10\8-|
|-11------------------------|

FILL 6: (palm mute w/ gradual release)
|-------------------------------------------------|
|-------------------------------------------------|
|-------------------------------------------------|
|-10-10-10-10-10-10-10-10-10-10-10-10-10-10-10-10-|
|-10-10-10-10-10-10-10-10-10-10-10-10-10-10-10-10-|
|-10-10-10-10-10-10-10-10-10-10-10-10-10-10-10-10-|
            
Submit corrections

comments powered by Disqus
↑ Back to top | Mudvayne Tabs for Severed. Lyrics for acoustic guitar and electric guitar. Tablatures and chords are parodies/interpretations of the original songs. You may use it for private study, scholarship, research or language learning purposes only