>
 >
(Per)Version Of A Truth 2

(Per)Version Of A Truth 2 Bass Tabs

Mudvayne - (Per)Version Of A Truth 2 chords, tabs, tablatures, lyrics

Guitar lessons | Add/correct | Request | Top 50 tabs Artists:  A B C D E F G H I J K L M N O P Q R S T U V W X Y Z 0-9

(Per)Version Of A Truth 2 Bass Tabs – Mudvayne

CD, Sheet music, Poster

Do you like (Per)Version Of A Truth 2? Share with your friends now
Bass Tabs
Mudvayne
“(Per)version of a truth”
bassist: RU-D (Ryknow)

sorry, I kinda made this tab longer than it should’ve been. I put the order of when to play all the parts in the song at the bottom. Please leave corrections if needed. thanks.

        Verse:

    Part A
F -------------------7-----------------------------------------------------------
C -------------------------------------------------------------------------------
G ---5---5-----------------------5-5---------5---5-----------5-5---------6\5-5---
C -----------0---0----------0-0--------0-0------------0---0--------0-0-----------
                     P
    Part B                           
F ----------------------------------------------------------------------------------
C ----------------------------------------------------------------------------------
G ---5---5--------5---5---------5---5--------5---5------5----5-----------6\5-5------
C ----------0-0-----------0-0----------0--0--------0-0-----------0-0----------------

    Part C
F ----------------------------------------------------------------------------------
C ----------------------------------------------------------------------------------
G ---5---5--------5---5-------5---5-------5---5----x-x-x-x-x-x-x-x-x-x-x-x-x--------
C ----------0-0----------0-0---------0--0----------x-x-x-x-x-x-x-x-x-x-x-x-x--------
							  ^ not sure about this
    Part D                                                                                       
F ---------------7---------------------------------------------------------------
C -------------------------------------------------------------------------------
G -5---5---------------------5-5-------5-5---------5-5-5---------6p5/8-----------
C --------0---0------0---0--------0-0-------0x-0x---------0x-0x------------------
     	        P
    Part E                            
F --------------------------------------------------------------------------------
C --------------------------------------------------------------------------------
G -5---5-------5---5---------5---5--------5---5-------5----5----------------------
C --------0-0----------0-0----------0--0---------0-0----------0-0----6\5-5--------

    Bridge
F ----------------------------------------------------------------------------------
C --------------------------------------------------------------------3-3-3-3-------
G -------------------------------------------------------------5p3-3----------------
C -0h1---1-111---0h1---1-111---0h1---1-1---0h1---1-1-111---0h1----------------------
          
       Chorus
F -----------------------------------------------------------------------------
C --------------------------------------------------------------------3-3------
G -------------5-----3-------------------------------------------5---------3---
C ---0-0-0---------------3-3-3------10------8--------0-0-0---------------------

        Chorus Fill
F -----------------------------------------------------
C -----------------------------------------------------
G -----------------------------------------------------
C ---333-2-3---0-333-2-3---3/8-8-8---------------------

       Chorus 2
F -------------------------------------------------------------------------------
C -------------------------------------------------------------------3-3---------
G -------------5-----3--------------------------------------------5--------3-----
C ---0-0-0---------------3-3-3------8---10---8-------0-0-0-----------------------

     Chorus Fill 2
F ----------------------------------------
C ----------------------------------------
G ----------------------------------------
C ---333-2-3---0-333-2-3---3-000----------

Interlude:
     Part A
F ---------¦-------7x---5---7p5----------10----10----10----14---10--------
C ---------¦-----7--------------------10----10----10----------------------
G -------- ¦---5------------------8---------------------------------------
C ---0r----¦--------------------------------------------------------------
               ^ comes in at 2:48

     Part B
F ----------7-----7---5---7p5-------------10---17---14---14\10----------------
C -------7----7------------------------10-------------------------------------
G ----------------------------------8-----------------------------------------
C ----------------------------------------------------------------------------
    
      Bridge 2
F -----------------------------------------
C -----------------------------------------
G -----------------------------------------
C -0h1---1-111---0h1---1-111---0h1---1-1---


      Interlude 2  (3:16)
 F ---------------------------------------------------------------------------
C ---------------------------------------------------------------------------
G ---------7-7-7-8---3-3-3-5-5-5-3-3-----------------------------------------
C ---0---------------------------------------3----8/10-10--8-----------------

  Chorus 3 (yes…it’s different…) (3:38)
F -------------------------------------------------------------------------
C ---------------------------------------------------------------3-3-------
G --------8-8-8-8-8-8---------8-8-8-8-10-10-10-10-10----------5-------3----
C -0-0-0---------------3-3-3---------------------------0-0-0---------------

 Chorus 4  (I think this is a chorus…whatever)  (4:00)
F --------------------------------------------------------------------------
C ------------------------------------------------------------3-3-----------
G --------------8-8-8-8-8-8--------------------------------5-------5--------
C ---0---0-0-0---------------3-3-3----8---10---8----0-0-0-------------------


Order:
Verse – part A (X2), part B, part C, part D, part B, part D, part E
Bridge (X2)
Verse – part E
Chorus
Chorus Fill
Chorus 2
Chorus Fill 2 (X2)
Verse – you can figure out which parts to play by now…just listen to it
Chorus
Chorus Fill
Chorus 2
Chorus Fill 2 (X6)
Interlude – part A, part B, part A
Bridge 2 (X4)
Interlude 2 (X4)
Chorus 3
Chorus Fill
Chorus 3
Chorus Fill
Chorus 4
Chorus Fill
Chorus 4
Chorus Fill 2 (X6)





Comments


Popular Mudvayne tabs & chords
Prod 2 Bass Tabs
Severed 2 Bass Tabs
Shadow Of A Man Bass Tabs
Silenced Bass Tabs
All That You Are 1 Tabs
Fall Into Sleep Tabs
Internal Primates Forever 1 Tabs
Mercy Severity 2 Tabs
Pharmaecopia 2 Tabs
Under My Skin Tabs


Song lyrics



↑ Back to top | Tablatures and chords are parodies/interpretations of the original songs. You may use it for private study, scholarship, research or language learning purposes only
© 2014 AZChords.com Contact us | Privacy policy | DMCA | Add/correct tabs | Request tabs | Top 50 tabs