» » »

Mudvayne, (Per) Version Of A Truth Bass tabs (ver.1)

Artists:  A B C D E F G H I J K L M N O P Q R S T U V W X Y Z # 

(Per) Version Of A Truth Bass tabs (ver.1)

Mudvayne Tabs
 Rating:
4/5 (4 votes)
(Per) Version Of A Truth lessons Tabs too difficult? Try these video lessons and learn fast
1
                "(1)

T= tap or downward pluck

Verse (0:00)
F ---------------------------3-3------------------------------
C -----------------------1-1----------------------------------
G -0-0-0-0--x-0-0-0-0--x----------0-0-0-0--x-0-0-0-0--x-6/5-5-
C ------------------------------------------------------------
   T T T T  T T T T T  T T T T T  T T T T  T T T T T  T T   T

Heavy fill (0:45) "Truth does not exist..."        x2
F -------------------------------------------------------------------
C -----------------------------------------------------------3-3-3-3-
G -----------------------------------------------------5p3-3---------
C -0h1-1-2-1-0-0h1-1-1-2-1-0-0h1-1-1-0h1-1-2-1-0-0h1-1---------------

Verse one more time

Chorus (1:02)                         
F -------------------------------------------------------
C -------------------------------------------------------
G -------------------------------------------------------
C -0--0--0--4--4-/12-12-12-12---3--3--3--/12--12-8-8-8-8-
cont.
F -------------------------------------------------------
C -------------------------------------------------------
G ----------8--8-8-7-----------------------------1-1-1-1-
C -0--0--0------------3-3-0-2-3--0-3-3-0-2-0-0-0---------
Chorus outro (1:21) "Doesn't exist, it doesn't exist"
F ---------------------------------
C ---------------------------------
G ---------------------------------
C -3-3-0-2-3--0-3-3-0-2-3--0-3-2-0-

Verse again (1:27)

Chorus again (2:01)

Play chorus outro many times (2:23)

Bridge (2:48)                                      x3
F --------------------------------------12---13---11---10---9\--
C -0--14--14/15--10--10-12-12-12-12---12---11---11---8----7-----
G ----------------------------------8---------------------------
C --------------------------------------------------------------
   (3:05) "Light..."
F -----------------------------------
C -----------------------------------
G -----------------------------------
C -0h1-1-2-1-0-0h1-1-1-2-1-0-0h1-1-1-
   (3:16) "I'm not the only one..."
F -------------------------------------------------
C -------------------------------------------------
G ----7--7/8--3--3h5-5-5-5-------------------------
C -0------------------------3--3--3-3b--3--3-3b--3-

Chorus variation (3:38)                   x2
F ------------------------------------------------
C ------------------------------------------------
G ----------8-8-8-8-8-8----------8-8-8-8-10-10-10-
C -0--0--0--------------3--3--3-------------------
   T  T  T                       T T T T T  T  T
F ----------------------------------------------------
C ----------------------------------------------------
G ----------8--8-8-7-------------------------1-1-1-1/-
C -0--0--0------------3-3-0-2-3--0-3-3-0-2-3----------
            T  T T T
Outro (4:20)
F ---------------------------------
C ---------------------------------
G ---------------------------------
C -3-3-0-2-3--0-3-3-0-2-3--0-3-2-0-

That should do it. This song is played very fluidly, so keep it smooth.
"            
Submit corrections

comments powered by Disqus
↑ Back to top | Mudvayne Bass for (Per) Version Of A Truth. Lyrics for acoustic guitar and electric guitar. 1 Tablatures and chords are parodies/interpretations of the original songs. You may use it for private study, scholarship, research or language learning purposes only