» » »

On The Move Bass tabs (ver.1)

Artists:  A B C D E F G H I J K L M N O P Q R S T U V W X Y Z # 

On The Move Bass tabs (ver.1)

Mudvayne
Rating:
0/5 (0 votes)

Tabs too difficult? Try these video lessons and learn fast.
                (1)
unreleased track
tuning:c,g,c,f
|-----------------------------------------|
|---3-2--3-0-2-3-0-3-2-0-2-3-0-3-2-0-2-3--|
|-----------------------------------------|
|----x-xx-x-x-x-x-x-x-x-x-x-x-x-x-x-x-x-x-|

|--8-8-8-8-8-|---------------------------|
|--8-8-8-8-8-|---3-23-2--3-2--3-3---2-3--|
|------------|---------------------------|
|------------|----0--0--0-0----0---0-0---|

|------------------------------------------|
|--7--7---7-7--7-7-19-19--19-19-19-19--19--|
|---0---0--0--0-0----0--0---0-----0--0---0-|
|--7-7-7-7---7---7-19-19--19-19-19-19--19--|

  please leave any mudvayne or s.o.a.d requests on the comments section
            
Tabs too difficult? Try these video lessons and learn fast.


comments powered by Disqus
↑ Back to top | Tablatures and chords are parodies/interpretations of the original songs. You may use it for private study, scholarship, research or language learning purposes only