» » »

Mudvayne, Never Enough Tabs (ver.2)

Artists:  A B C D E F G H I J K L M N O P Q R S T U V W X Y Z # 

Never Enough Tabs (ver.2)

Mudvayne Tabs
Rating:
0/5 (0 votes)
Never Enough lessons Tabs too difficult? Try these video lessons and learn fast
                (Intro)
-------------------------------------------------------------------------------
                             NEVER ENOUGH - Mudvayne
-------------------------------------------------------------------------------
I was just messin around and I figured it out. I'm not sure if its %100. thought id post 
it up see if it would help anyone else tab the whole song. I might add the rest if i 
feel like it later but for now, Good Luck! :)
Tuning:CGCFAD (Drop C)

Intro: played twice
D|-------------------------------------------------------------------------|
A|-6--6-6--5-5--5-5-5-5----------------------------------------------------|
F|-5--5-5--4-4--4-4-4-4-5--5-5-X-X-7--7-7----------------------------------|
C|-3--3-3--2-2--2-2-2-2-3--3-3-X-X-5--5-5-3-5-0----------------------------|
G|----------------------3--3-3-X-X-5--5-5-3-5-0----------------------------|
C|----------------------3--3-3-X-X-5--5-5-3-5-0----------------------------|

D|-------------------------------------------------------------------------|
A|-6--6-6--5-5--5-5-5-5----------------------------------------------------|
F|-5--5-5--4-4--4-4-4-4-5--5-5-X-X-7--7-7--7-7-7---------------------------|
C|-3--3-3--2-2--2-2-2-2-3--3-3-X-X-5--5-5--5-5-5---------------------------|
G|----------------------3--3-3-X-X-5--5-5--5-5-5---------------------------|
C|----------------------3--3-3-X-X-5--5-5--5-5-5---------------------------|



************************************

| /   slide up
| \   slide down
| h   hammer-on
| p   pull-off
| ~   vibrato
| +   harmonic
| x   Mute note
| b   Bend
| pb  Pre-bend
| br  Bend release
| pbr Pre-bend release
| brb Bend release bend

************************************
            

comments powered by Disqus
↑ Back to top | Mudvayne Tabs for Never Enough. Lyrics for acoustic guitar and electric guitar. Tablatures and chords are parodies/interpretations of the original songs. You may use it for private study, scholarship, research or language learning purposes only