» » »

Mudvayne, Negative Bass tabs (ver.1)

Artists:  A B C D E F G H I J K L M N O P Q R S T U V W X Y Z # 

Negative Bass tabs (ver.1)

Mudvayne Tabs
 Rating:
4/5 (4 votes)
Negative lessons Tabs too difficult? Try these video lessons and learn fast
1
                "(1)
Artist - Mudvayne
Song - Negative 1
Album - L.D. 50

Although Ryknow plays on a 5-string [G C G C F] you can play it fine on a 4-string tuned to
drop-d minus 1 step [C G C F]. The best eq for this is keeping your low-end much louder than
your high-end, and having the volume fairly low if you're playing with guitar.

T - Slapped
S - Popped
() - Muted Slap/Pop [don't let the note ring out]
h - Hammer-on
p - Pull-off
x - Dead note


+- MAIN RIFF [0:09] ------------+

F|----------------------------|-
C|----------------------------|-
G|-------2--------------------|-
C|-0-1h3---1-0---0h1-1-x-1-0--|-

--------------------------------+

+- BREAKDOWN 2:21-------------------------------------------------------+
 x8                                 x4
F|----------------------------------|-------------------------------|-
C|----------------------------------|-------------------------------|-
G|----------------------------------|-------------------------------|-
C|--0h1-0h1-3p1-0h1-0h1-0h1-3p1-0h1-|x0h1-0h1-3p1-0h1-0h1-0h1-x-x---|-

+-----------------------------------------------------------------------+

+- MAIN RIFF MODIFED [2:48] --------------------------------------------+

F|----------------------------|---------------------------|-
C|----------------------------|---------------------------|-
G|-------2--------------------|-------2-------------------|-
C|-0--x3---1-0---0h1-1-x-x-0--|-0--x3---1-0---0h1-1-x--0--|-
   S  SS S S S   S S S S S S    S  SS S S S   S S S S  S

F|----------------------------|---------------------------|----------|-
C|----------------------------|---------------------------|----------|-
G|-------2--------------------|-------2-------------------|-------x--|-
C|-0--x3---1-0---0h1-1-x-x-0--|x0h1x3---1-0---0h1-1-x--0--|-0h1x-----|-
   S  SS S S S   S S S S S S   SS SSS S S S   S S S S  S    S SS  S


+- OUTRO [3:46]---------------------------------------------------------------+

F|----------------------------|-----------------------------|-
C|----------------------------|-----------------------------|-
G|-------2--------------------|-------2---------------------|-
C|-0-1h3---1-0---0h1-1-x-x----|x0-1h3---1-0---0h1-1-x-x-x-x-|-

F|----------------------------|-----------------------------|--------------|-
C|----------------------------|-----------------------------|--------------|-
G|-------2--------------------|-------2---------------------|--------2-----|-
C|-0-1h3---1-0---0h1-1-x-x----|x0-1h3---1-0---0h1-1-x-x-x-x-|x-0-1h3---1-0-|-



The main riff is repeated aside from the chorus, modified main riff, the outro, and a few
obvious breaks. It should be really easy to follow with the song.

This sounds fairly right, but as always it's impossible to be 100% sure. I'll update it if
I find any mistakes.
"            
Submit corrections

comments powered by Disqus
↑ Back to top | Mudvayne Bass for Negative. Lyrics for acoustic guitar and electric guitar. 1 Tablatures and chords are parodies/interpretations of the original songs. You may use it for private study, scholarship, research or language learning purposes only