» » »

Mudvayne, Mercy Severity Tabs (ver.2)

Artists:  A B C D E F G H I J K L M N O P Q R S T U V W X Y Z # 

Mercy Severity Tabs (ver.2)

Mudvayne Tabs
Rating:
0/5 (0 votes)
Mercy Severity lessons Tabs too difficult? Try these video lessons and learn fast
                
Tuning: Drop D, Down 1 1/2 Steps (B,F#,B,E,G#,C#)


INTRO
|---------------------------------|
|---------------------------------|
|---------------------------------|
|---------------------------------|x4
|--6-5-4-0--6-5-0--6-5-0----------|
|--6-5-4-0--6-5-0--6-5-0----------|

INTRO 2
|-----------------------------------------------------------------------------------|
|-----------------------------------------------------------------------------------|
|-----------------------------------------------------------------------------------|
|-----------------------------------------------------------------------------------|x2
|--6-5-4-0-9--6-5-0-9--6-5-4-0-8--6-5-0-8--6-5-4-0-7--6-5-0-7--6-5-4-0-6--6-5-0-6---|
|--6-5-4-0-9--6-5-0-9--6-5-4-0-8--6-5-0-8--6-5-4-0-7--6-5-0-7--6-5-4-0-6--6-5-0-6---|

VERSE (clean)
|---------------------------------------------------------------------------|
|---------------------------------------------------------------------------|
|---------------------------------------------------------------------------|
|--8--8--8--8--8-8-6--6--6--6-6h88------------------------------------------|x4
|----------------------------------10--10--10--10--10-10--9--9--9--9--9-9---|
|---------------------------------------------------------------------------|

CHORUS
|-------------------------------------------------------------------------------|
|-------------------------------------------------------------------------------|
|-------------------888--------------888----------888\6------------6-------10---|
|-------------------xxx--------------xxx----------xxx-x------------x-------x----|x4
|-------------------666--------------666----------666\4------------4-------8----|
|-----6-5-4-0-6-5-0-----0-6-5h6p5-0------0-6-5-0----------xxxxxxxx---xxxxx------|
P.M. (palm mute I am not sure, sorry!)                                   . . . . . .     . . . .                           
             
VERSE (clean)
|--------------------------------------------------------------------------|
|--------------------------------------------------------------------------|
|--------------------------------------------------------------------------|
|--8--8--8--8--8-8-6--6--6--6-6h8------------------------------------------|x3
|---------------------------------10--10--10--10--10-10--9--9--9--9--9-9---|
|--------------------------------------------------------------------------|

INTRO 2
|-----------------------------------------------------------------------------------|
|-----------------------------------------------------------------------------------|
|-----------------------------------------------------------------------------------|
|-----------------------------------------------------------------------------------|x2
|--6-5-4-0-9--6-5-0-9--6-5-4-0-8--6-5-0-8--6-5-4-0-7--6-5-0-7--6-5-4-0-6--6-5-0-6---|
|--6-5-4-0-9--6-5-0-9--6-5-4-0-8--6-5-0-8--6-5-4-0-7--6-5-0-7--6-5-4-0-6--6-5-0-6---|

CHORUS
|-------------------------------------------------------------------------------|
|-------------------------------------------------------------------------------|
|-------------------888--------------888----------888\6------------6-------10---|
|-------------------xxx--------------xxx----------xxx-x------------x-------x----|x4
|-------------------666--------------666----------666\4------------4-------8----|
|-----6-5-4-0-6-5-0-----0-6-5h6p5-0------0-6-5-0----------xxxxxxxx---xxxxx------|
P.M.                                                                           . . . . . .    . . . . 

INTERLUDE 1 (2:47)
|---------------------------------------------------------------------------|
|---------------------------------------------------------------------------|
|---------------------------------------------------------------------------|
|---------------------------------------------------------------------------|
|---------------------------------------------------------------------------|
|---------------------------------------------------------------------------|
I am not sure,sorry!!!

INTRO 2
|-----------------------------------------------------------------------------------|
|-----------------------------------------------------------------------------------|
|-----------------------------------------------------------------------------------|
|-----------------------------------------------------------------------------------|x2
|--6-5-4-0-9--6-5-0-9--6-5-4-0-8--6-5-0-8--6-5-4-0-7--6-5-0-7--6-5-4-0-6--6-5-0-6---|
|--6-5-4-0-9--6-5-0-9--6-5-4-0-8--6-5-0-8--6-5-4-0-7--6-5-0-7--6-5-4-0-6--6-5-0-6---|

VERSE (clean)
|--------------------------------------------------------------------------|
|--------------------------------------------------------------------------|
|--------------------------------------------------------------------------|
|--8--8--8--8--8-8-6--6--6--6-6h8------------------------------------------|x2
|---------------------------------10--10--10--10--10-10--9--9--9--9--9-9---|
|--------------------------------------------------------------------------|

INTERLUDE 2 (clean/effect)
|-----------20-----------------20-----------|
|---16-----------------16-------------------|
|-------15-----------------15------15-------|
|-------------------------------------------|x2
|-------------------------------------------|
|-------------------------------------------|

CHORUS
|-------------------------------------------------------------------------------|
|-------------------------------------------------------------------------------|
|-------------------888--------------888----------888\6------------6-------10---|
|-------------------xxx--------------xxx----------xxx-x------------x-------x----|x4
|-------------------666--------------666----------666\4------------4-------8----|
|-----6-5-4-0-6-5-0-----0-6-5h6p5-0------0-6-5-0----------xxxxxxxx---xxxxx------|
P.M.                                                                           . . . . . .    . . . . 

INTRO
|---------------------------------|
|---------------------------------|
|---------------------------------|
|---------------------------------|x3
|--6-5-4-0--6-5-0--6-5-0----------|
|--6-5-4-0--6-5-0--6-5-0----------|

END
|-----------------------|
|-----------------------|
|-----------------------|
|-----------------------|x1
|--6-5-4-0--6-5-0-------|
|--6-5-4-0--6-5-0-------|


Please, rate this tab.
Send me the corrections to my e-mail,thank you.
            

comments powered by Disqus
↑ Back to top | Mudvayne Tabs for Mercy Severity. Lyrics for acoustic guitar and electric guitar. Tablatures and chords are parodies/interpretations of the original songs. You may use it for private study, scholarship, research or language learning purposes only