» » »

Mudvayne, Knot Fallin Tabs (ver.1)

Artists:  A B C D E F G H I J K L M N O P Q R S T U V W X Y Z # 

Knot Fallin Tabs (ver.1)

Mudvayne Tabs
Rating:
0/5 (0 votes)
Knot Fallin lessons Tabs too difficult? Try these video lessons and learn fast
                INTRO:
|--------------------------------------------------------------------|
|--------------------------------------------------------------------|
|-5\4-444444444444-5\4-44444444444444-5\4-44444444444444-5\4-4444444-|
|-X-X-XXXXXXXXXXXX-X-X-XXXXXXXXXXXXXX-X-X-XXXXXXXXXXXXXX-X-X-XXXXXXX-|
|-3\2-222222222222-3\2-22222222222222-3\2-22222222222222-3\2-2222222-|


START at 7 secs.                                               X3
CHORUS:
|--------------------------------------------------|
|--------------------------------------------------|
|------------------------------------10101010-9999-|
|-------------------------------------X-X-X-X-XXXX-|
|-0h3-0--0h3-0h3-0--0h3-0h3-0--0h3-0--8-8-8-8-7777-|
|-0h3-0--0h3-0h3-0--0h3-0h3-0--0h3-0---------------|


START at 20 secs.
VERSE:
|----------------------------------------------------------|
|----------------------------------------------------------|
|----------------------------------------------------------|
|-15151515151515151515151515151515141414141414141414141414-|
|--0-0-0-0-0-0-0-0-0-0-0-0-0-0-0-0-0-0-0-0-0-0-0-0-0-0-0-0-|
|--0-0-0-0-0-0-0-0-0-0-0-0-0-0-0-0-0-0-0-0-0-0-0-0-0-0-0-0-|

|------------------------------------------------------------------|
|------------------------------------------------------------------|
|------------------------------------------------------------------|
|-1212121212121212121212121212121217171717151519191919191919191919-|
|--0-0-0-0-0-0-0-0-0-0-0-0-0-0-0-0-0-0-0-0-0-0-0-0-0-0-0-0-0-0-0-0-|
|--0-0-0-0-0-0-0-0-0-0-0-0-0-0-0-0-0-0-0-0-0-0-0-0-0-0-0-0-0-0-0-0-|

|------------------------------------------------------|
|------------------------------------------------------|
|------------------------------------------------------|
|-1919191914141414141414141414141414141414121212121212-|
|--0-0-0-0-0-0-0-0-0-0-0-0-0-0-0-0-0-0-0-0-0-0-0-0-0-0-|
|--0-0-0-0-0-0-0-0-0-0-0-0-0-0-0-0-0-0-0-0-0-0-0-0-

START at 44 secs.
CHORUS B:
|---------------------------------------------|
|---------------------------------------------|
|-5-5-5-5--5-5-5--5--5-5-5-5--5-5-5----9/10-9-|
|-3-3-3-3--3-3-3--3--3-3-3-3--3-3-3-0--X-X--X-|
|-3-3-3-3--3-3-3--3--3-3-3-3--3-3-3-0--7/8--7-|
|-3-3-3-3--3-3-3--3--3-3-3-3--3-3-3-0---------|



START at 1:16                                         X2
VERSE 2:
|----------------------------------------------------------------|
|----------------------------------------------------------------|
|----------------------------------------------------------------|
|-15151515151515--14141414141414--12121212121212--17171717171715-|
|--0-0-0-0-0-0-0---0-0-0-0-0-0-0---0-0-0-0-0-0-0---0-0-0-0-0-0-0-|
|--0-0-0-0-0-0-0---0-0-0-0-0-0-0---0-0-0-0-0-0-0---0-0-0-0-0-0-0-|

VERSE 2 ENDING 1:
|----------------------------------|
|----------------------------------|
|----------------------------------|
|-19191919191919191919191919191919-|
|--0-0-0-0-0-0-0-0-0-0-0-0-0-0-0-0-|
|--0-0-0-0-0-0-0-0-0-0-0-0-0-0-0-0-|


START at
VERSE 2 ENDING 2:
|------------------------------------------------------------------|
|------------------------------------------------------------------|
|------------------------------------------------------------------|
|-1919191919191919191919191919191914141414141414141414141414141414-|
|--0-0-0-0-0-0-0-0-0-0-0-0-0-0-0-0-0-0-0-0-0-0-0-0-0-0-0-0-0-0-0-0-|
|--0-0-0-0-0-0-0-0-0-0-0-0-0-0-0-0-0-0-0-0-0-0-0-0-0-0-0-0-0-0-0-0-|

|--------------|
|--------------|
|--------------|
|-121212121212-|
|--0-0-0-0-0-0-|
|--0-0-0-0-0-0-|


START at 2:00 mins
CHORUS:
|--------------------------------------------------|
|--------------------------------------------------|
|------------------------------------10101010-9999-|
|-------------------------------------X-X-X-X-XXXX-|
|-0h3-0--0h3-0h3-0--0h3-0h3-0--0h3-0--8-8-8-8-7777-|
|-0h3-0--0h3-0h3-0--0h3-0h3-0--0h3-0---------------|

START at 2:31
INTERLUDE:
|-----------------------------------------|
|-----------------------------------------|
|-5\4444444444444444444444444444444444444-|
|-X-XXXXXXXXXXXXXXXXXXXXXXXXXXXXXXXXXXXXX-|
|-3\2222222222222222222222222222222222222-|





INTERLUDE 2: (palm mute)
|-------------------------------|
|-------------------------------|
|-------------------------------|
|-------------------------------|
|-3-2-0-2-0-0-3-2-0-2-0-0-3-2-0-|
|-3-2-0-2-0-0-3-2-0-2-0-0-3-2-0-|


START at 3:02 mins
INTERLUDE 3:
|-8-8-8-8-8-8-8-8----------------|
|-7-7-7-7-7-7-7-7----------------|
|-5-5-5-5-5-5-5-5----------------|
|--------------------------------|
|-----------------0-0-6\--0-0-6\-|
|-----------------0-0-6\--0-0-6\-|

INTERLUDE 3 FILL:
|-8-8-8-8---------------------|
|-7-7-7-7---------------------|
|-5-5-5-5---------------------|
|-----------------------------|
|---------6\--0-0-6\---0-0-6\-|
|---------6\--0-0-6\---0-0-6\-|

START at 3:29 mins
INTERLUDE 4:
|-8-8-8-8-8-8-8-8--8-8-8--8-8-8-8-8-|
|-7-7-7-7-7-7-7-7--7-7-7--7-7-7-7-7-|
|-5-5-5-5-5-5-5-5--5-5-5--5-5-5-5-5-|
|-----------------------------------|
|-----------------------------------|
|-----------------------------------|


START at 
CHORUS:
|--------------------------------------------------|
|--------------------------------------------------|
|------------------------------------10101010-9999-|
|-------------------------------------X-X-X-X-XXXX-|
|-0h3-0--0h3-0h3-0--0h3-0h3-0--0h3-0--8-8-8-8-7777-|
|-0h3-0--0h3-0h3-0--0h3-0h3-0--0h3-0---------------|
            
Submit corrections

comments powered by Disqus
↑ Back to top | Mudvayne Tabs for Knot Fallin. Lyrics for acoustic guitar and electric guitar. Tablatures and chords are parodies/interpretations of the original songs. You may use it for private study, scholarship, research or language learning purposes only