» » »

Mudvayne, Internal Primates For Ever Tabs (ver.3)

Artists:  A B C D E F G H I J K L M N O P Q R S T U V W X Y Z # 

Internal Primates For Ever Tabs (ver.3)

Mudvayne Tabs
 Rating:
4/5 (4 votes)
Internal Primates For Ever lessons Tabs too difficult? Try these video lessons and learn fast
                "Internal Primates Forever" by Mudvayne
No toucha my tab

This is the first tab I ever wrote.

Drop C Tuning

- Palm Mute
h Hammer On

Intro

4 -----------------------------0-0-0--0-0-0-
5 -----------------------------0-0-0--0-0-0-
6 --3-1-0--1-0-1--0-0-3-2-3----0-0-0--0-0-0-




Chorus

4 --3-1-0--1-0-1--0-0-3-2-3----0-0-0--0-0-0-
5 --3-1-0--1-0-1--0-0-3-2-3----0-0-0--0-0-0-
6 --3-1-0--1-0-1--0-0-3-2-3----0-0-0--0-0-0-

Verse

3 ---6---6---6--6
4 -5----5---5-5-5
            ---

Bridge 1

3 --6-6-6-------------------5h6-6-6
4 --------4-4-4-5-5-5-6-6-6--------
    - - - - - - - - - - - - - - - -

Bridge 2

3 ---6-6-6-------------------5-5-6-6
4 ---6-6-6-4-4-4-5-5-5-6-6-6-5-5-6-6
5 ---4-4-4-4-4-4-5-5-5-6-6-6-3-3-4-4
6 ---------4-4-4-5-5-5-6-6-6--------

Fill

4 -6------------7-6
   Hold

Riff
4 ---3-1-0-2-3-1-0---5-3-1-0-2
5 ---3-1-0-2-3-1-0---5-3-1-0-2
6 ---3-1-0-2-3-1-0---5-3-1-0-2

Riff

6 ---3-1-0-2-3-1-0-2-3-1-0-2

Outro part 1

4 ---3-1-0-6-5----3-1-0-6-5-0-1
5 ---3-1-0-6-5----3-1-0-6-5-0-1
6 ---3-1-0-6-5----3-1-0-6-5-0-1

Outro part 2

4 ---3-1-0-6-5-0-1----3-1-0-6-5-0-1
5 ---3-1-0-6-5-0-1----3-1-0-6-5-0-1
6 ---3-1-0-6-5-0-1----3-1-0-6-5-0-1
				  Hold
            
Submit corrections

comments powered by Disqus
↑ Back to top | Mudvayne Tabs for Internal Primates For Ever. Lyrics for acoustic guitar and electric guitar. Tablatures and chords are parodies/interpretations of the original songs. You may use it for private study, scholarship, research or language learning purposes only