» » »

Mudvayne, Happy Tabs

Artists:  A B C D E F G H I J K L M N O P Q R S T U V W X Y Z # 

Happy Tabs

(ver. 1)
Mudvayne Tabs
 Rating:
4/5 (4 votes)
    Happy lessons Tabs too difficult? Try these video lessons and learn fast

WWW.AZCHORDS.COM | Mudvayne Tabs - Happy Tabs (ver. 1)


                MUDVAYNE - HAPPY?

D, A, F, C, G, C

Intro:
|-------------------------------------------------------------------|
|-------------------------------------------------------------------|
|---------121212121212121212121212--------121212121212121212121212--|
|--8-8-8-8-x-x-x-x-x-x-x-x-x-x-x-x10101010-x-x-x-x-x-x-x-x-x-x-x-x--|
|--5-5-5-5101010101010101010101010-8-8-8-8101010101010101010101010--|
|--5-5-5-5-------------------------8-8-8-8--------------------------|


|-------------------------------------------------------------------|
|-------------------------------------------------------------------|
|---------121212121212121212121212----------------------------------|
|--5-5-5-5-x-x-x-x-x-x-x-x-x-x-x-x-1-1-1-1-----1~~~~-------1h3-3~~--|
|--3-3-3-3101010101010101010101010-1-1-1-1-----1~~~~-0-1-0-1h3-3~~--|
|--3-3-3-3-------------------------1-1-1-1-----1~~~~-0-1-0-1h3-3~~--|
                                                     .....

|-------------------------------------------------------------------|
|-------------------------------------------------------------------|
|---------121212121212121212121212--------121212121212121212121212--|
|--8-8-8-8-x-x-x-x-x-x-x-x-x-x-x-x10101010-x-x-x-x-x-x-x-x-x-x-x-x--|
|--5-5-5-5101010101010101010101010-8-8-8-8101010101010101010101010--|
|--5-5-5-5-------------------------8-8-8-8--------------------------|
|
|
|-------------------------------------------------------------------|
|-----------------------------------------18181818181818181818\\\\--|
|---------151515151515151515151515---------x-x-x-x-x-x-x-x-x-x------|
|--8-8-8-8-x-x-x-x-x-x-x-x-x-x-x-x1010101015151515151515151515\\\\--|
|--5-5-5-5131313131313131313131313-8-8-8-8--------------------------|
|--5-5-5-5-------------------------8-8-8-8--------------------------|


|-------------------------------------------------------------------|
|-------------------------------------------------------------------|
|---------1212121212121212121212\\----------------------------------|
|--5-5-5-5-x-x-x-x-x-x-x-x-x-x-x---1-1-1-1-----1~~~~-------1h3-3~~--|
|--3-3-3-31010101010101010101010\\-1-1-1-1-----1~~~~-0-1-0-1h3-3~~--|
|--3-3-3-3-------------------------1-1-1-1-----1~~~~-0-1-0-1h3-3~~--|
|                                                    .....
|
|-------------------------------------------------------------------|
|---------151515151515151515151515----------------------------------|
|----------x-x-x-x-x-x-x-x-x-x-x-x----------------------------------|
|--5-5-5-5121212121212121212121212-1-1-1-1-----1~~~~-------1h3-3~~--|
|--3-3-3-3-------------------------1-1-1-1-----1~~~~-0-1-0-1h3-3~~--|
|--3-3-3-3-------------------------1-1-1-1-----1~~~~-0-1-0-1h3-3~~--|
                                                     .....

Verse:
|-------------------------------------------------------------------|
|-------------------------------------------------------------------|
|--------5~~---------------5------------10~~--------------10~~~~~\--|
|------8-----8-----------8---8---------8-----8-----------8---8------|
|----5---------5~~~~~~---------5~~---8---------8~~~~~~---------8~~--|
|--5-------------------5-----------8-------------------8------------|


|-------------------------------------------------------------------|
|-------------------------------------------------------------------|
|--------5~~---------------5-------------3~~---------------3--------|
|------3-----3-----------3---3---------1-----1-----------1---1------|
|----3---------3~~~~~~---------3~~---1---------1~~~~~~---------1~~--|
|--3-------------------3-----------1-------------------1------------|


|-------------------------------------------------------------------|
|-------------------------------------------------------------------|
|--------5~~---------------5------------10~~--------------10~~~~~\--|
|------8-----8-----------8---8---------8-----8-----------8---8------|
|----5---------5~~~~~~---------5~~---8---------8~~~~~~---------8~~--|
|--5-------------------5-----------8-------------------8------------|
|
|
|-------------------------------------------------------------------|
|-------------------------------------------------------------------|
|---------------------------------/7~~~~~~~~~~-5~~~~~~--------------|
|--5~~~~~~~~~~~~~~~~~~~~~~~~~~~~~~/8~~~~~~~~~~-7~~~~~~-----8--------|
|-------------------------------------------------------------------|
|-------------------------------------------------------------------|


|-------------------------------------------------------------------|
|-------------------------------------------------------------------|
|--------5~~---------------5-------------3~~---------------3--------|
|------3-----3-----------3---3---------1-----1-----------1---1------|
|----3---------3~~~~~~---------3~~---1---------1~~~~~~---------1~~--|
|--3-------------------3-----------1-------------------1------------|
|
|
|-------------------------------------------------------------------|
|-------------------------------------------------------------------|
|--2~~~~~~~~~~~~~~~~~~~~~~~~~~~~~~-0~~~~~~~~~~~~~~~~~~~~~~~~~~~~~~--|
|--3~~~~~~~~~~~~~~~~~~~~~~~~~~~~~~-1~~~~~~~~~~~~~~~~~~~~~~~~~~~~~~--|
|-------------------------------------------------------------------|
|-------------------------------------------------------------------|

Pre-chorus:
|-------------------------------------------------------------------|
|-------------------------------------------------------------------|
|-------------------------------------------------------------------|
|--------8-8-8-------8-8-8-----8-8-------8-8-8-------8-8-8-----8-8--|
|-------------------------------------------------------------------|
|--5-5-5-------5-5-5-------7-7-----8-8-8-------8-8-8-------8-8------|
   ...............................................................

|-------------------------------------------------------------------|
|-------------------------------------------------------------------|
|-------------------------------------------------------------------|
|--------5-5-5-------5-5-5-----5-5-------5-5-5-------5-5-5-----5-5--|
|-------------------------------------------------------------------|
|--3-3-3-------3-3-3-------3-3-----2-2-2-------2-2-2-------3-3------|
   ...............................................................

|-------------------------------------------------------------------|
|-------------------------------------------------------------------|
|-------------------------------------------------------------------|
|--------8-8-8-------8-8-8-----8-8-------8-8-8-------8-8-8-----8-8--|
|-------------------------------------------------------------------|
|--5-5-5-------5-5-5-------7-7-----8-8-8-------8-8-8-------8-8------|
|  ...............................................................
|
|--------------5-5-5---------------------------5-5-5----------------|
|--------6-6-6-------6-6-6-----6-6-------------------6-6-6-----6-6--|
|--7-7-7-------------------7-7-----------7-7-7----------------------|
|----------------------------------8-8-8-------------------8-8------|
|-------------------------------------------------------------------|
|-------------------------------------------------------------------|


|-------------------------------------------------------------------|
|-------------------------------------------------------------------|
|-------------------------------------------------------------------|
|--------5-5-5-------5-5-5-----5-5-------5-5-5-------5-5-5-----5-5--|
|-------------------------------------------------------------------|
|--3-3-3-------3-3-3-------3-3-----2-2-2-------2-2-2-------3-3------|
|  ...............................
|
|--------------5-5-5------------------------------------------------|
|--------------------6-6-6-----6-6-------------8-8-8-------8-8-8-8--|
|--------7-7-7---------------------------7-7-7-------7-7-7----------|
|--7-7-7-------------------7-7--------------------------------------|
|----------------------------------7-7-7----------------------------|
|-------------------------------------------------------------------|

Chorus:
|-------------------------------------------------------------------|
|-------------------------------------------------------------------|
|---------121212121212121212121212--------121212121212121212121212--|
|--8-8-8-8-x-x-x-x-x-x-x-x-x-x-x-x10101010-x-x-x-x-x-x-x-x-x-x-x-x--|
|--5-5-5-5101010101010101010101010-8-8-8-8101010101010101010101010--|
|--5-5-5-5-------------------------8-8-8-8--------------------------|
|
|
|-------------------------------------------------------------------|
|-----------------------------------------18181818181818181818\\\\--|
|---------151515151515151515151515---------x-x-x-x-x-x-x-x-x-x------|
|--8-8-8-8-x-x-x-x-x-x-x-x-x-x-x-x1010101015151515151515151515\\\\--|
|--5-5-5-5131313131313131313131313-8-8-8-8--------------------------|
|--5-5-5-5-------------------------8-8-8-8--------------------------|


|-------------------------------------------------------------------|
|-------------------------------------------------------------------|
|---------1212121212121212121212\\----------------------------------|
|--5-5-5-5-x-x-x-x-x-x-x-x-x-x-x---1-1-1-1-----1~~~~-------1h3-3~~--|
|--3-3-3-31010101010101010101010\\-1-1-1-1-----1~~~~-0-1-0-1h3-3~~--|
|--3-3-3-3-------------------------1-1-1-1-----1~~~~-0-1-0-1h3-3~~--|
|                                                    .....
|
|-------------------------------------------------------------------|
|---------151515151515151515151515----------------------------------|
|----------x-x-x-x-x-x-x-x-x-x-x-x----------------------------------|
|--5-5-5-5121212121212121212121212-1-1-1-1-----1~~~~-------1h3-3~~--|
|--3-3-3-3-------------------------1-1-1-1-----1~~~~-0-1-0-1h3-3~~--|
|--3-3-3-3-------------------------1-1-1-1-----1~~~~-0-1-0-1h3-3~~--|
                                                     .....

|-------------------------------------------------------------------|
|-------------------------------------------------------------------|
|---------121212121212121212121212--------121212121212121212121212--|
|--8-8-8-8-x-x-x-x-x-x-x-x-x-x-x-x10101010-x-x-x-x-x-x-x-x-x-x-x-x--|
|--5-5-5-5101010101010101010101010-8-8-8-8101010101010101010101010--|
|--5-5-5-5-------------------------8-8-8-8--------------------------|
|
|
|-------------------------------------------------------------------|
|-----------------------------------------18181818181818181818\\\\--|
|---------151515151515151515151515---------x-x-x-x-x-x-x-x-x-x------|
|--8-8-8-8-x-x-x-x-x-x-x-x-x-x-x-x1010101015151515151515151515\\\\--|
|--5-5-5-5131313131313131313131313-8-8-8-8--------------------------|
|--5-5-5-5-------------------------8-8-8-8--------------------------|


|-------------------------------------------------------------------|
|-------------------------------------------------------------------|
|---------1212121212121212121212\\----------------------------------|
|--5-5-5-5-x-x-x-x-x-x-x-x-x-x-x---1-1-1-1-----1~~~~-------1h3-3~~--|
|--3-3-3-31010101010101010101010\\-1-1-1-1-----1~~~~-0-1-0-1h3-3~~--|
|--3-3-3-3-------------------------1-1-1-1-----1~~~~-0-1-0-1h3-3~~--|
|                                                    .....
|
|-------------------------------------------------------------------|
|---------151515151515151515151515----------------------------------|
|----------x-x-x-x-x-x-x-x-x-x-x-x----------------------------------|
|--5-5-5-5121212121212121212121212-1-1-1-1-----1~~~~-------1h3-3~~--|
|--3-3-3-3-------------------------1-1-1-1-----1~~~~-0-1-0-1h3-3~~--|
|--3-3-3-3-------------------------1-1-1-1-----1~~~~-0-1-0-1h3-3~~--|
                                                     .....

Verse:
|-------------------------------------------------------------------|
|-------------------------------------------------------------------|
|-------------------------------------------------------------------|
|--------8-8-8-------8-8-8-----8-8-------8-8-8-------8-8-8-----8-8--|
|-------------------------------------------------------------------|
|--5-5-5-------5-5-5-------7-7-----8-8-8-------8-8-8-------8-8------|
   ...............................................................

|-------------------------------------------------------------------|
|-------------------------------------------------------------------|
|-------------------------------------------------------------------|
|--------5-5-5-------5-5-5-----5-5-------5-5-5-------5-5-5-----5-5--|
|-------------------------------------------------------------------|
|--3-3-3-------3-3-3-------3-3-----2-2-2-------2-2-2-------3-3------|
   ...............................................................

|-------------------------------------------------------------------|
|-------------------------------------------------------------------|
|-------------------------------------------------------------------|
|--------8-8-8-------8-8-8-----8-8-------8-8-8-------8-8-8-----8-8--|
|-------------------------------------------------------------------|
|--5-5-5-------5-5-5-------7-7-----8-8-8-------8-8-8-------8-8------|
   ...............................................................

|-------------------------------------------------------------------|
|-------------------------------------------------------------------|
|-------------------------------------------------------------------|
|--------5-5-5-------5-5-5-----5-5-------5-5-5-------5-5-5-----5-5--|
|-------------------------------------------------------------------|
|--3-3-3-------3-3-3-------3-3-----2-2-2-------2-2-2-------3-3------|
   ...............................................................

Pre-chorus:
|-------------------------------------------------------------------|
|-------------------------------------------------------------------|
|-------------------------------------------------------------------|
|--------8-8-8-------8-8-8-----8-8-------8-8-8-------8-8-8-----8-8--|
|-------------------------------------------------------------------|
|--5-5-5-------5-5-5-------7-7-----8-8-8-------8-8-8-------8-8------|
|  ...............................................................
|
|--------------------------6---5------------------------------------|
|--------8~~~~-------8------------------11~~~~------11--------11----|
|-------------------------------------------------------------------|
|--5-----------5-------------------8-----------8~~~~-------8--------|
|-------------------------------------------------------------------|
|-------------------------------------------------------------------|


|-------------------------------------------------------------------|
|-------------------------------------------------------------------|
|-------------------------------------------------1212121212121212--|
|--------5-5-5-------5-5-5-----5-5-------5-5-5-----x-x-x-x-x-x-x-x--|
|-------------------------------------------------1010101010101010--|
|--3-3-3-------3-3-3-------3-3-----2-2-2-------2-2------------------|
|  ...............................................
|
|-------------------------------------------------------------------|
|--------6~~~~-------6~~~~-8~~-6~~-------5-5-5----------------------|
|-------------------------------------------------1212121212121212--|
|--5-5-5-------5-5-5---------------2-2-2-------2-2-x-x-x-x-x-x-x-x--|
|-------------------------------------------------1010101010101010--|
|-------------------------------------------------------------------|

Chorus:
|-------------------------------------------------------------------|
|-------------------------------------------------------------------|
|---------121212121212121212121212--------121212121212121212121212--|
|--8-8-8-8-x-x-x-x-x-x-x-x-x-x-x-x10101010-x-x-x-x-x-x-x-x-x-x-x-x--|
|--5-5-5-5101010101010101010101010-8-8-8-8101010101010101010101010--|
|--5-5-5-5-------------------------8-8-8-8--------------------------|
|
|
|-------------------------------------------------------------------|
|-----------------------------------------18181818181818181818\\\\--|
|---------151515151515151515151515---------x-x-x-x-x-x-x-x-x-x------|
|--8-8-8-8-x-x-x-x-x-x-x-x-x-x-x-x1010101015151515151515151515\\\\--|
|--5-5-5-5131313131313131313131313-8-8-8-8--------------------------|
|--5-5-5-5-------------------------8-8-8-8--------------------------|


|-------------------------------------------------------------------|
|-------------------------------------------------------------------|
|---------1212121212121212121212\\----------------------------------|
|--5-5-5-5-x-x-x-x-x-x-x-x-x-x-x---1-1-1-1-----1~~~~-------1h3-3~~--|
|--3-3-3-31010101010101010101010\\-1-1-1-1-----1~~~~-0-1-0-1h3-3~~--|
|--3-3-3-3-------------------------1-1-1-1-----1~~~~-0-1-0-1h3-3~~--|
|                                                    .....
|
|-------------------------------------------------------------------|
|---------151515151515151515151515----------------------------------|
|----------x-x-x-x-x-x-x-x-x-x-x-x----------------------------------|
|--5-5-5-5121212121212121212121212-1-1-1-1-----1~~~~-------1h3-3~~--|
|--3-3-3-3-------------------------1-1-1-1-----1~~~~-0-1-0-1h3-3~~--|
|--3-3-3-3-------------------------1-1-1-1-----1~~~~-0-1-0-1h3-3~~--|
                                                     .....

|-------------------------------------------------------------------|
|-------------------------------------------------------------------|
|---------121212121212121212121212--------121212121212121212121212--|
|--8-8-8-8-x-x-x-x-x-x-x-x-x-x-x-x10101010-x-x-x-x-x-x-x-x-x-x-x-x--|
|--5-5-5-5101010101010101010101010-8-8-8-8101010101010101010101010--|
|--5-5-5-5-------------------------8-8-8-8--------------------------|
|
|
|-------------------------------------------------------------------|
|-----------------------------------------18181818181818181818\\\\--|
|---------151515151515151515151515---------x-x-x-x-x-x-x-x-x-x------|
|--8-8-8-8-x-x-x-x-x-x-x-x-x-x-x-x1010101015151515151515151515\\\\--|
|--5-5-5-5131313131313131313131313-8-8-8-8--------------------------|
|--5-5-5-5-------------------------8-8-8-8--------------------------|


|-------------------------------------------------------------------|
|-------------------------------------------------------------------|
|---------1212121212121212121212\\----------------------------------|
|--5-5-5-5-x-x-x-x-x-x-x-x-x-x-x---1-1-1-1-----1~~~~-------1h3-3~~--|
|--3-3-3-31010101010101010101010\\-1-1-1-1-----1~~~~-0-1-0-1h3-3~~--|
|--3-3-3-3-------------------------1-1-1-1-----1~~~~-0-1-0-1h3-3~~--|
|                                                    .....
|
|-------------------------------------------------------------------|
|---------151515151515151515151515----------------------------------|
|----------x-x-x-x-x-x-x-x-x-x-x-x----------------------------------|
|--5-5-5-5121212121212121212121212-1-1-1-1-----1~~~~-------1h3-3~~--|
|--3-3-3-3-------------------------1-1-1-1-----1~~~~-0-1-0-1h3-3~~--|
|--3-3-3-3-------------------------1-1-1-1-----1~~~~-0-1-0-1h3-3~~--|
                                                     .....

Bridge:
|-------111111~~--------------------|-------11--------------------------|
|--------x-x-x----------------------|--------x--------------------------|
|--------8-8-8~~-----7~~~b~~~r~~~~--|--------8---------7~~-7/8-81010~~--|
|--------0-0-0~~--------------------|--------0---------x---x---x---x----|
|--0---0----------------------------|--0---0---0---0---5~~-5/6-6/8-8~~--|
|--0---0----------------------------|--0---0---0---0--------------------|
                            (Play 3x)

Break:
|-------------------------------------------------------------------|
|-------------------------------------------------------------------|
|-------------------------------------------------------------------|
|----------5~~-5-8~~-8-5~~-5-8-5~~10~~~~~~10~~-810~~10-8~~1010-8~~--|
|--5~~~~~~-5~~-5-5~~-5-5~~-5-5-5~~-8~~~~~~-8~~-8-8~~-8-8~~-8-8-8~~--|
|--5~~~~~~-5~~-5-5~~-5-5~~-5-5-5~~-8~~~~~~-8~~-8-8~~-8-8~~-8-8-8~~--|
|
|
|-------------------------------------------------------------------|
|-------------------------------------------------------------------|
|-15~~12~~~~~~15~~12~~~~~~15~~12~~15~~14~~~~~~15~~14~~~~~~15~~14~~--|
|-------------------------------------------------------------------|
|-------------------------------------------------------------------|
|-------------------------------------------------------------------|


|-------------------------------------------------------------------|
|-------------------------------------------------------------------|
|-------------------------------------------------------------------|
|--5~~~~~~-5~~-5-5~~-5-----5-5-------------------3~~-3-----3-3------|
|--3~~~~~~-3~~-3-3~~-3-----3-3-----1~~~~~~-1~~-1-1~~-1-1~~-1-1-1~~--|
|--3~~~~~~-3~~-3-3~~-3-3~~-3-3-3~~-1~~~~~~-1~~-1-1~~-1-1~~-1-1-1~~--|
|
|
|-------------------------------------------------------------------|
|-------------------------------------------------------------------|
|-19~~15~~~~~~19~~15~~~~~~19~~15~~15~~14~~~~~~15~~14~~~~~~15~~14~~--|
|-------------------------------------------------------------------|
|-------------------------------------------------------------------|
|-------------------------------------------------------------------|

Chorus:
|-------------------------------------------------------------------|
|-------------------------------------------------------------------|
|-------------------------------------------------------------------|
|--8-8-8-8------------------------10101010--------------------------|
|--5-5-5-5-------------------------8-8-8-8--------------------------|
|--5-5-5-5-------------------------8-8-8-8--------------------------|


|-------------------------------------------------------------------|
|--1-1-1-1----------------------------------------------------------|
|--2-2-2-2----------------------------------------------------------|
|--3-3-3-3-------------------------1-1-1-1-----1~~~~-------1h3-3~~--|
|--3-3-3-3-------------------------1-1-1-1-----1~~~~-0-1-0-1h3-3~~--|
|--3-3-3-3-------------------------1-1-1-1-----1~~~~-0-1-0-1h3-3~~--|
                                                     .....

|-------------------------------------------------------------------|
|-------------------------------------------------------------------|
|---------121212121212121212121212--------121212121212121212121212--|
|--8-8-8-8-x-x-x-x-x-x-x-x-x-x-x-x10101010-x-x-x-x-x-x-x-x-x-x-x-x--|
|--5-5-5-5101010101010101010101010-8-8-8-8101010101010101010101010--|
|--5-5-5-5-------------------------8-8-8-8--------------------------|
|
|
|-------------------------------------------------------------------|
|---------------------1818----1818--------------------1818----1818--|
|---------141414141414----1414------------141414141414----1414------|
|--8-8-8-8------------------------10101010--------------------------|
|--5-5-5-5-------------------------8-8-8-8--------------------------|
|--5-5-5-5-------------------------8-8-8-8--------------------------|


|-------------------------------------------------------------------|
|-------------------------------------------------------------------|
|---------1212121212121212121212\\----------------------------------|
|--5-5-5-5-x-x-x-x-x-x-x-x-x-x-x---1-1-1-1-----1~~~~-------1h3-3~~--|
|--3-3-3-31010101010101010101010\\-1-1-1-1-----1~~~~-0-1-0-1h3-3~~--|
|--3-3-3-3-------------------------1-1-1-1-----1~~~~-0-1-0-1h3-3~~--|
|                                                    .....
|
|-------------------------------------------------------------------|
|---------------------1818----1818----------------------------------|
|---------141414141414----1414--------------------------------------|
|--5-5-5-5-------------------------1-1-1-1-----1~~~~-------1h3-3~~--|
|--3-3-3-3-------------------------1-1-1-1-----1~~~~-0-1-0-1h3-3~~--|
|--3-3-3-3-------------------------1-1-1-1-----1~~~~-0-1-0-1h3-3~~--|
                                                     .....

|-------------------------------------------------------------------|
|-------------------------------------------------------------------|
|---------121212121212121212121212--------121212121212121212121212--|
|--8-8-8-8-x-x-x-x-x-x-x-x-x-x-x-x10101010-x-x-x-x-x-x-x-x-x-x-x-x--|
|--5-5-5-5101010101010101010101010-8-8-8-8101010101010101010101010--|
|--5-5-5-5-------------------------8-8-8-8--------------------------|
|
|
|-------------------------------------------------------------------|
|---------1818--------1818----1818--------------------1818----1818--|
|-------------14141414----1414------------141414141414----1414------|
|--8-8-8-8------------------------10101010--------------------------|
|--5-5-5-5-------------------------8-8-8-8--------------------------|
|--5-5-5-5-------------------------8-8-8-8--------------------------|


|-------------------------------------------------------------------|
|-------------------------------------------------------------------|
|---------1212121212121212121212\\-------------5-5-5~~--------------|
|--5-5-5-5-x-x-x-x-x-x-x-x-x-x-x---1-1-1-1-----8-8-8~~-----8-3-3~~--|
|--3-3-3-31010101010101010101010\\-1-1-1-1-----7-7-7~~-----8-3-3~~--|
|--3-3-3-3-------------------------1-1-1-1-----5-5-5~~-----8-3-3~~--|

Out-Chorus:
|-------------------------------------------------------------------|
|-------------------------------------------------------------------|
|-------------------------------------------------------------------|
|--8-8-8-8-8-5-0-5~~-8-5-0-8-5-0-51010101010-8-0-8~~10-8-010-8-0-8--|
|--5-5-5-5-8-5-0-5~~-8-5-0-8-5-0-5-8-8-8-810-8-0-8~~10-8-010-8-0-8--|
|--5-5-5-5-8-5-0-5~~-8-5-0-8-5-0-5-8-8-8-810-8-0-8~~10-8-010-8-0-8--|


|-------------------------------------------------------------------|
|-------------------------------------------------------------------|
|----------------------------------3-3-3-3-3-3-3-3-5-5-5-5-5-5-5-5--|
|--5-5-5-5-5-3-0-3~~-5-3-0-5-3-0-3-1-1-1-1-1-1-1-1-3-3-3-3-3-3-3-3--|
|--3-3-3-3-5-3-0-3~~-5-3-0-5-3-0-3-1-1-1-1-1-1-1-1-3-3-3-3-3-3-3-3--|
|--3-3-3-3-5-3-0-3~~-5-3-0-5-3-0-3-1-1-1-1-1-1-1-1-3-3-3-3-3-3-3-3--|


|-------------------------------------------------------------------|
|-------------------------------------------------------------------|
|-------------------------------------------------------------------|
|--8-8-8-8-8-5-0-5~~-8-5-0-8-5-0-51010101010-8-0-8~~10-8-010-8-0-8--|
|--5-5-5-5-8-5-0-5~~-8-5-0-8-5-0-5-8-8-8-810-8-0-8~~10-8-010-8-0-8--|
|--5-5-5-5-8-5-0-5~~-8-5-0-8-5-0-5-8-8-8-810-8-0-8~~10-8-010-8-0-8--|


|-------------------------------------------------------------------|
|-------------------------------------------------------------------|
|----------------------------------------------5-5-5~~--------------|
|--5-5-5-5-5-3-0-3~~-5-3-0-5-3-0-3-1-1-1-1-----8-8-8~~-----8-3~~~~--|
|--3-3-3-3-5-3-0-3~~-5-3-0-5-3-0-3-1-1-1-1-----7-7-7~~-----8-3~~~~--|
|--3-3-3-3-5-3-0-3~~-5-3-0-5-3-0-3-1-1-1-1-----5-5-5~~-----8-3~~~~--|


|-----------|
|-----------|
|-----------|
|--8-8-8-8--|
|--5-5-5-5--|
|--5-5-5-5--|
            
Submit corrections

↑ Back to top | Mudvayne Tabs for Happy. Lyrics for acoustic guitar and electric guitar. Tablatures and chords are parodies/interpretations of the original songs. You may use it for private study, scholarship, research or language learning purposes only