>
 >
Detirmined

Detirmined Guitar Tabs

Mudvayne - Detirmined chords, tabs, tablatures, lyrics

Guitar lessons | Add/correct | Request | Top 50 tabs Artists:  A B C D E F G H I J K L M N O P Q R S T U V W X Y Z 0-9

Detirmined Guitar Tabs – Mudvayne

CD, Sheet music, Poster

Do you like Detirmined? Share with your friends now
Tabs
OK THIS IS RIGHT FROM THE BOOK SO ALL THE NOTES ARE RIGHT..

    "Determined"            KEY:/ \=SLIDE UP, DOWN
                                 PM=PALM MUTE
                                 X=SLIGHTLY COVER STRING WITH FINGER SO IT DOESN'T RING OUT
                            (low)c-g-c-f-a-d(high)
                            tempo:123
                            *straight out'a tha tab book*

|----2-2-2-2-3-3-3-3-5-5-5-5-8-8-8-8|-2-2-2-2-3-3-3-3-5-5-5-5-8-8-8-8-| (low)
|-----------------------------------|---------------------------------|
|-----------------------------------|---------------------------------|
|-----------------------------------|---------------------------------|
|-----------------------------------|---------------------------------|
|-----------------------------------|---------------------------------| (high)

|----2-2-2-2-3-3-3-3-5-5-5-5-8-8-8-8|-2-2-2-2-3-3-3-3-5-5-5-5-8-8-8-8-|
|-----------------------------------|---------------------------------|
|-----------------------------------|---------------------------------|
|-----------------------------------|---------------------------------|
|-----------------------------------|---------------------------------|
|-----------------------------------|---------------------------------|

|----2-2-2-2-3-3-3-3-5-5-5-5-8-8-8-8|-2-2-2-2-3-3-3-3-5-5-5-5-8-8-8-8-|
|----2-2-2-2-3-3-3-3-5-5-5-5-8-8-8-8|-2-2-2-2-3-3-3-3-5-5-5-5-8-8-8-8-|
|----2-2-2-2-3-3-3-3-5-5-5-5-8-8-8-8|-2-2-2-2-3-3-3-3-5-5-5-5-8-8-8-8-|
|-----------------------------------|---------------------------------|
|-----------------------------------|---------------------------------|
|-----------------------------------|---------------------------------|

|----2-2-2-2-3-3-3-3-5-5-5-5-8-8-8-8|-2-2-2-2-3-3-3-3-5-5-5-5-8-8-8-8-|
|----2-2-2-2-3-3-3-3-5-5-5-5-8-8-8-8|-2-2-2-2-3-3-3-3-5-5-5-5-8-8-8-8-|
|----2-2-2-2-3-3-3-3-5-5-5-5-8-8-8-8|-2-2-2-2-3-3-3-3-5-5-5-5-8-8-8-8-|
|-----------------------------------|---------------------------------|
|-----------------------------------|---------------------------------|
|-----------------------------------|---------------------------------|

|----0---3---0----3---0---3---0---3-|--6---0-----0--/6---0--/6---0---|
|----0---3---0----3---0---3---0---3-|--6---0-----0--/6---0--/6---0---|
|----0---3---0----3---0---3---0---3-|--6---0-----0--/6---0--/6---0---|
|-----------------------------------|--------------------------------|
|-----------------------------------|--------------------------------|
|-----------------------------------|--------------------------------|

|----0---3---0----3---0---3---0---3-|--6---0-----0--/6---0--/6---0---|
|----0---3---0----3---0---3---0---3-|--6---0-----0--/6---0--/6---0---|
|----0---3---0----3---0---3---0---3-|--6---0-----0--/6---0--/6---0---|
|-----------------------------------|--------------------------------|
|-----------------------------------|--------------------------------|
|-----------------------------------|--------------------------------|

|--0---3---0---3---0---3---0---3----|
|--0---3---0---3---0---3---0---3----|
|--0---3---0---3---0---3---0---3----|
|-----------------------------------|
|-----------------------------------|
|-----------------------------------|

|-----6---0-----0--/6---0--/6---0---|--0---3---0---3---0---3---0---3--|
|-----6---0-----0--/6---0--/6---0---|--0---3---0---3---0---3---0---3--|
|-----6---0-----0--/6---0--/6---0---|--0---3---0---3---0---3---0---3--|
|-----------------------------------|---------------------------------|
|-----------------------------------|---------------------------------|
|-----------------------------------|---------------------------------|

|---6---0-----0---/6---0---6--------|
|---6---0-----0---/6---0---6--------|
|---6---0-----0---/6---0---6--------|
|-----------------------------------|
|-----------------------------------|
|-----------------------------------|

|--2---2---2---2----2--0--2----2---3---2---0--|
|--2---2---2---2----2--0--2----2---3---2---0--|
|---------------------------------------------|
|---------------------------------------------|
|---------------------------------------------|
|---------------------------------------------|

|---------------------------------------------|
|-----6------6--------6------6----------------|
|-----4------4--------4------4----------------|
|-----3------3--------3------3----------------|
|-----2------2--------2------2----------------|
|---------------------------------------------|

|----2---2---2---2------0----2/5\2---2---3---2---0--|
|----2---2---2---2------0----2/5\2---2---3---2---0--|
|---------------------------------------------------|
|---------------------------------------------------|
|---------------------------------------------------|
|---------------------------------------------------|

|----------------------------------------------|
|-----6------6--------6------6-----------------|
|-----4------4--------4------4-----------------|
|-----3------3--------3------3-----------------|
|-----2------2--------2------2-----------------|
|----------------------------------------------|

|----2---2---2---2------0----2----0-----2---3---2---0--|
|----2---2---2---2------0----2----0-----2---3---2---0--|
|------------------------------------------------------|
|------------------------------------------------------|
|------------------------------------------------------|
|------------------------------------------------------|

|-----------------------------------------------|
|-----6------6--------6------6------------------|
|-----4------4--------4------4------------------|
|-----3------3--------3------3------------------|
|-----2------2--------2------2------------------|
|-----------------------------------------------|

|----2---2---2---2------0----2/5\2----2---3---2---0--|
|----2---2---2---2------0----2/5\2----2---3---2---0--|
|----------------------------------------------------|
|----------------------------------------------------|
|----------------------------------------------------|
|----------------------------------------------------|

|-------------||-2--2--2--2----0--0--2--2--2--2----0--0--|
|-------------||-----------------------------------------|
|-------------||-----------------------------------------|
|-------------||-----------------------------------------|
|-------------||-----------------------------------------|
|-------------||-----------------------------------------|

|-2--2--2--2----0--0--8--8--7--7--5--5--7--7--|
|---------------------------------------------|
|---------------------------------------------|
|---------------------------------------------|
|---------------------------------------------|
|---------------------------------------------|

|----2--2--2--2----0--0--2--2--2--2----0--0--|
|--------------------------------------------|
|--------------------------------------------|
|--------------------------------------------|
|--------------------------------------------|
|--------------------------------------------|

|--2--2--2--2----0--0---8---8--7--7---8--8--3--3--|
|-------------------------------------------------|
|-------------------------------------------------|
|-------------------------------------------------|
|-------------------------------------------------|
|-------------------------------------------------|

|--2--2--2--2----0--0--2--2--2--2----0--0--|
|--2--2--2--2----0--0--2--2--2--2----0--0--|
|--2--2--2--2----0--0--2--2--2--2----0--0--|
|------------------------------------------|
|------------------------------------------|
|------------------------------------------|

|-2-2-2-2---0-0--8--8--7--7---5-5--7--7-|--2-2-2-2---0--0-2-2-2-2----0--0-|
|-2-2-2-2---0-0--8--8--7--7---5-5--7--7-|--2-2-2-2---0--0-2-2-2-2----0--0-|
|-2-2-2-2---0-0--8--8--7--7---5-5--7--7-|--2-2-2-2---0--0-2-2-2-2----0--0-|
|---------------------------------------|---------------------------------|
|---------------------------------------|---------------------------------|
|---------------------------------------|---------------------------------|

|--2-2-2-2----0--0--8--8-7-7---8-8\3--3--|
|--2-2-2-2----0--0--8--8-7-7---8-8\3--3--|
|--2-2-2-2----0--0--8--8-7-7---8-8\3--3--|
|----------------------------------------|
|----------------------------------------|
|----------------------------------------|

|----2--2--2--2--5--2--0--2----5--2--0--2----|
|----2--2--2--2------------------------------|
|----2--2--2--2------------------------------|
|--------------------------------------------|
|--------------------------------------------|
|--------------------------------------------|

|--5--2--0--2--0--2--5--2--0--2----5--2--0--2--0------|
|----------------------------------------------0------|
|----------------------------------------------0------|
|-----------------------------------------------------|
|-----------------------------------------------------|
|-----------------------------------------------------|

|----2-2-2-2--5-2-0-2----5-2-0-2----|
|----2-2-2-2------------------------|
|----2-2-2-2------------------------|
|-----------------------------------|
|-----------------------------------|
|-----------------------------------|

|--5--2--0--2----5--2--0--2--0--2--5--2--0---2----8--7---7--7--7--7--7--7-|
|-------------------------------------------------------------------------|
|-------------------------------------------------------------------------|
|-------------------------------------------------------------------------|
|-------------------------------------------------------------------------|
|-------------------------------------------------------------------------|

|----------------------------------------------|
|----------------------------------------------|
|-----13----------------------------------13---|
|-----X-----------------------------------X----|
|-----16----------------------------------16---|  ...PLAY THIS TWICE....
|----------------------------------------------|
          *LONG PAUSE BETWEEN EACH NOTE*

OK THATS IT..GOOD LUCK AND ROCK ON!!!...





Comments


Popular Mudvayne tabs & chords
-1 3 Bass Tabs
Dig 3 Bass Tabs
Happy 3 Bass Tabs
Know Forever Bass Tabs
Nothing To Gein Bass Tabs
Closer Intro 1 Tabs
Cradle 1 Tabs
Determined Tabs
Dig Tabs
Goodbye Tabs


Song lyrics



↑ Back to top | Tablatures and chords are parodies/interpretations of the original songs. You may use it for private study, scholarship, research or language learning purposes only
© 2014 AZChords.com Contact us | Privacy policy | DMCA | Add/correct tabs | Request tabs | Top 50 tabs