>
 >
Death Blooms 2

Death Blooms 2 Guitar Tabs

Mudvayne - Death Blooms 2 chords, tabs, tablatures, lyrics

Guitar lessons | Add/correct | Request | Top 50 tabs Artists:  A B C D E F G H I J K L M N O P Q R S T U V W X Y Z 0-9

Death Blooms 2 Guitar Tabs – Mudvayne

CD, Sheet music, Poster

Do you like Death Blooms 2? Share with your friends now
Bass TabsBass Tabs v2Bass Tabs v3Bass Tabs v4ChordsTabsTabs v2Tabs v3Tabs v4Tabs v5Ukulele
tunning: B F# B E G# C#
<>-harmonics
here you go.. the real version..100%.....

Intro:              
|------------------------------------------|
|------------------------------------------|
|-------------------<7>-----<7>-----<7>----|repeat 4 times
|----------------------<7>-----<7>-----<7>-|
|-3-2-2-3-2-2-2-2---------<7>-----<7>------|
|-3-2-2-3-2-2-2-2--------------------------|

|---------------------------------|
|---------------------------------|
|---------------------------------|repeat 4 times
|---------------------------------|
|-0-7-8-0-7-8-0-7-8-0-5-0-3-5-2-0-|
|-0-7-8-0-7-8-0-7-8-0-5-0-3-5-2-0-|

Verse:
|------------------------------------------|
|------------------------------------------|
|------------------------------------------|
|------------------------------------------|
|-3-2-0-3-5-0-2-3--2-----2-----2-----2-----|
|-3-2-0-3-5-0-2-3----3-3---3-3---3-3---3-3-|

|--------------------------------------------------|
|--------------------------------------------------|
|--------------------------------------------------|
|--------------------------------------------------|
|-3-2-0-3-5-0-2-3--3-2-2-3-2-2-3-2-2-3-2-2-3-2-0-2-|
|-3-2-0-3-5-0-2-3--3-2-2-3-2-2-3-2-2-3-2-2-3-2-0-2-|

Riff 1:
|---------------------------------|
|---------------------------------|
|---------------------------------|
|---------------------------------|
|-0-7-8-0-7-8-0-7-8-0-5-0-3-5-2-0-|
|-0-7-8-0-7-8-0-7-8-0-5-0-3-5-2-0-|

|---------------------------------|
|-------3-------------------------|
|----2------------0------0--------|
|-0---------------2------2--------|
|-0---------------3------3---//8-8|
|-0--------------------------//8-8|

|---------------------------------|
|---------------------------------|
|---------------------------------|
|---------------------------------|
|-0-7-8-0-7-8-0-7-8-0-5-0-3-5-2-0-|
|-0-7-8-0-7-8-0-7-8-0-5-0-3-5-2-0-|

|------------------------------------|
|-------3----------------------------|
|----2------------0------0-----------|
|-0---------------2------2-----------|
|-0---------------3------3---//8-8-8-|
|-0--------------------------//8-8-8-|

|---------------------------------|
|---------------------------------|
|---------------------------------|
|---------------------------------|
|-0-7-8-0-7-8-0-7-8-0-5-0-3-5-2-0-|
|-0-7-8-0-7-8-0-7-8-0-5-0-3-5-2-0-|

|--------------------------------------|
|-------3------------------------------|
|----2------------0------0-------------|
|-0---------------2------2-------------|
|-0---------------3------3----/8-8-8-8-|
|-0---------------------------/8-8-8-8-|

|---------------------------------|
|---------------------------------|
|---------------------------------|
|---------------------------------|
|-0-7-8-0-7-8-0-7-8-0-5-0-3-5-2-0-|
|-0-7-8-0-7-8-0-7-8-0-5-0-3-5-2-0-|

|-----------------------------------------------------|
|-------3---------------------------------------------|
|----2------------0------0-----------------2----------|
|-0---------------2------2-----------------0----------|
|-0---------------3------3----/8-8-8-8-----0----------|
|-0---------------------------/8-8-8-8-----0----------|

Riff 2:
|---------------------------------------------------------|
|---------------------------------------------------------|
|---------------------------------------------------------|
|---------------------------------------------------------|
|-1------------1------------------1-----------1-----------|
|---2-0-3-2-0----2-0-3-2-0--0-0----2-0-3-2-0---2-0-3-2-0-0|

Riff 3:                  repeat 3 times
|---------------------------------------------------------|
|---------------------------------------------------------|
|---------------------------------------------------------|
|----------------------------------------------3-----3--3-|
|-3--2-0-2-0-2-3-------2-0-2-0-3----2-0-2-0-0--3-----3--3-|
|-3--2-0-2-0-2-3-------2-0-2-0-3----2-0-2-0-0--3-----3--3-|

Riff 4:
|--------------------------------|
|--------------------------------|
|--------------------------------|repeat 3 times
|--------------------------------|
|-1-----------1------------0---0-|
|---3-0-3-2-0---3-0-3-2-0--0---0-|

|------------------------------------|
|------------------------------------|
|------------------------------------|
|-3--------------3-------------------|repeat 3 times
|-1----3-0-3-2-0-1----3-0-3-2-0-0--0-|
|------3-0-3-2-0------3-0-3-2-0-0--0-|

riff 5:
|-----------------3-----------------|
|-3--------1------3-----------------|
|-2--------0------0-----------------|
|-0--------2------0-----------------|
|----------3------2-----------------|
|-----------------------------------|

|--------------------------|
|--------------------------|
|--------------------------|
|--------------------------|repeat 4 times
|--------------------------|
|-3-0-0---3-0-0---3-0-0--0-|

Riff 6:|
|-----------------------------------------|
|-----------------------------------------|
|-------------------------------------5---|repeat 11 times
|-----------------------------------------|
|-3-0-0---3-0-0---3-0-0--0------0-0---3---|
|-3-0-0---3-0-0---3-0-0--0------0-0-------|

|------------------------------------|
|------------------------------------|
|------------------------------------|
|------------------------------------|
|3-0-0---3-0-0---3-0-0---0-----------|
|3-0-0---3-0-0---3-0-0---0-----------|

Outro:
|---------------------------------------------------------|
|---------------------------------------------------------|
|---------------------------------------------------------|
|-----------------------------------------4---------------|
|-----------------------------------------3---3-0-0-3-5-0-|
|-0--0----0----0----0----0--3-2---0----0------3-0-0-3-5-0-|

|----------------------------|
|----------------------------|
|----------------------------|
|----------------------------|
|-0--0--------------3-2--3/5-|
|-0--0----0-----0---3-2--3/5-|

|-----------------------------------|
|-----------------------------------|
|-----------------------------------|
|----------------4------------------|
|----------------3--3-0-2-3-5-0-2-3-|
|-0--0---0----0-----3-0-2-3-5-0-2-3-|

|---------------------------------------------------------|
|---------------------------------------------------------|
|---------------------------------------------------------|
|-----------------------------------------4---------------|
|-----------------------------------------3---3-0-0-3-5-0-|
|-0--0----0----0----0----0--3-2---0----0------3-0-0-3-5-0-|

|----------------------------|
|----------------------------|
|----------------------------|
|----------------------------|
|-0--0--------------3-2--3/5-|
|-0--0----0-----0---3-2--3/5-|

|------------------------------|
|------------------------------|
|------------------------------|
|---------------4--------------|
|---------------3--------------|
|-0--0---0--0------------------|


there you go ppl.... hope you like........
all credit to mudvayne





Comments


Popular Mudvayne tabs & chords
Fish Out Of Water Bass Tabs
Happy 2 Bass Tabs
Internal Primates Forever 2 Bass Tabs
Pulling The String Bass Tabs
Pushing Through 2 Bass Tabs
Rain Sun Gone Bass Tabs
A Key To Nothing 1 Tabs
Dig 2 Tabs
Forget To Remember 3 Tabs
Seed Tabs


Song lyrics



↑ Back to top | Tablatures and chords are parodies/interpretations of the original songs. You may use it for private study, scholarship, research or language learning purposes only
© 2014 AZChords.com Contact us | Privacy policy | DMCA | Add/correct tabs | Request tabs | Top 50 tabs