» » »

Mudvayne, !!Deathblooms!! Tabs (ver.2)

Artists:  A B C D E F G H I J K L M N O P Q R S T U V W X Y Z # 

!!Deathblooms!! Tabs (ver.2)

Mudvayne Tabs
 Rating:
4/5 (19 votes)
!!Deathblooms!! lessons Tabs too difficult? Try these video lessons and learn fast
1
                Death Blooms-Mudvayne
L.D. 50

Drop B:
B F# B E G# C#

( ) = harmonics

*version from guitar world*

Intro:

x4
e------------------------------------------------------
b------------------------------------------------------
g-----------------(7)------(7)-----(7)-----------------
d--------------------(7)------(7)-----(7)--------------
a-3-2-2-3-2-2-2-0-------(7)------(7)-------------------
d-3-2-2-3-2-2-2-0--------------------------------------

Fig. 1 x4

e------------------------------------------------------
b------------------------------------------------------
g------------------------------------------------------
d------------------------------------------------------
a-0-7-8-0-7-8-0-7-8-0-5-0-3-5-2-0----------------------
d-0-7-8-0-7-8-0-7-8-0-5-0-3-5-2-0----------------------

e------------------------------------------------------
b------------------------------------------------------
g------------------------------------------------------
d------------------------------------------------------
a-3\2-0-3/5-0-2/3--3-----3-----------------------------
d-3\2-0-3/5-0-2/3----2-2---2-2-------------------------

Verses 1&2:

x2
e------------------------------------------------------
b------------------------------------------------------
g------------------------------------------------------
d------------------------------------------------------
a------------------3-----3-----------------------------
d--------------------2-2---2-2-------------------------

e------------------------------------------------------
b------------------------------------------------------
g------------------------------------------------------
d------------------------------------------------------
a----3-----3-----------------------3\2-0-3/5-0-2/3-----
d------2-2---2-2-------------------3\2-0-3/5-0-2/3-----

Pre Chorus:

x4
e------------------------------------------------------
b------------------------------------------------------
g------------------------------------------------------
d------------------------------------------------------
a-3-2-2-3-2-2-3-2-2-3-2-2-3-2-0-2----------------------
d-3-2-2-3-2-2-3-2-2-3-2-2-3-2-0-2----------------------

then

e------------------------------------------------------
b------------------------------------------------------
g------------------------------------------------------
d------------------------------------------------------
a-3\2-0-3/5-0-2/3--3-----3-----------------------------
d-3\2-0-3/5-0-2/3----2-2---2-2-------------------------

...me !...

e------------------------------------------------------
b------------------------------------------------------
g------------------------------------------------------
d------------------------------------------------------
a-0-7-8-0-7-8-0-7-8-0-5-0-3-5-2p0----------------------
d-0-7-8-0-7-8-0-7-8-0-5-0-3-5-2p0----------------------

Chorus:

e------------------------------------------------------
b-3---3-3-3-3------------------------------------------
g-2---2-2-2-2-0-0-0-0----------------------------------
d-0---0-0-0-0-2-2-2-2-8-8-8-8--------------------------
a-------------3-3-3-3-8-8-8-8--------------------------
d---------------------8-8-8-8--------------------------

e------------------------------------------------------
b------------------------------------------------------
g------------------------------------------------------
d------------------------------------------------------
a-0-7-8-0-7-8-0-7-8-0-5-0-3-5-2-0----------------------
d-0-7-8-0-7-8-0-7-8-0-5-0-3-5-2-0----------------------

let ring

e------------------------------------------------------
b------------------------------------------------------
g------------------------------------------------------
d-0----------------------------------------------------
a-0----------------------------------------------------
d-0----------------------------------------------------

Bridge:

x3
e------------------------------------------------------
b------------------------------------------------------
g------------------------------------------------------
d------------------------------------------------------
a-1-----------1----------------------------------------
d---2-0-3-2-0---2-0-3-2-0--0---0h3---------------------

e------------------------------------------------------
b------------------------------------------------------
g------------------------------------------------------
d------------------------------------------------------
a-1-----------1----------------------------------------
d---2-0-3-2-0---2-0-3p2p0--0--0------------------------

x3
e------------------------------------------------------
b------------------------------------------------------
g------------------------------------------------------
d------------------------------------------------------
a-3---2-0-2-0-2-3---2-0-2-0-3---2-0-3-0-0-3---3--3-3-3-
d-3---2-0-2-0-2-3---2-0-2-0-3---2-0-3-0-0-3---3--3-3-3-

x3
e------------------------------------------------------
b------------------------------------------------------
g------------------------------------------------------
d------------------------------------------------------
a-1-----------1----------------------------------------
d---2-0-3-2-0---2-0-3-2-0--0--0------------------------

x3
e------------------------------------------------------
b------------------------------------------------------
g------------------------------------------------------
d-3-2-0-3-2-0-3-2-0-3-2-0---0--0-----------------------
a-3-2-0-3-2-0-3-2-0-3-2-0---0--0-----------------------
d-3-2-0-3-2-0-3-2-0-3-2-0---0--0-----------------------

...waiting for me !...

e------------------------------------------------------
b-3----1----3------------------------------------------
g-2----0----0------------------------------------------
d-0----2----0------------------------------------------
a------3----2------------------------------------------
d--------------------------3p0-0-3p0-0-3p0-0-0---------

e------------------------------------------------------
b-3----1----3------------------------------------------
g-2----0----0------------------------------------------
d-4----2----0------------------------------------------
a-0----3----2------------------------------------------
d--------------------------3p0-0-3p0-0-3p0-0-0---------

x3
e------------------------------------------------------
b------------------------------------------------------
g------------------------------------------------------
d------------------------------------------------------
a------------------------------------------------------
d-3p0-0-3p0-0-3p0-0-0----------------------------------

x8
e------------------------------------------------------
b------------------------------------------------------
g------------------------------------------------------
d------------------------------------------------------
a-3p0-0-3p0-0-3p0-0-0---------3------------------------
d-3p0-0-3p0-0-3p0-0-0----0-0---------------------------

e------------------------------------------------------
b------------------------------------------------------
g------------------------------------------------------
d------------------------------------------------------
a-3p0-0-3p0-0-3p0-0-0---------8------------------------
d-3p0-0-3p0-0-3p0-0-0----0-0---------------------------

e------------------------------------------------------
b------------------------------------------------------
g------------------------------------------------------
d------------------------------------------------------
a-3p0-0-3p0-0-3p0-0-0--------10------------------------
d-3p0-0-3p0-0-3p0-0-0----0-0---------------------------

e------------------------------------------------------
b------------------------------------------------------
g------------------------------------------------------
d------------------------------------------------------
a-3p0-0-3p0-0-3p0-0-0--------12------------------------
d-3p0-0-3p0-0-3p0-0-0----0-0---------------------------

e------------------------------------------------------
b------------------------------------------------------
g------------------------------------------------------
d------------------------------------------------------
a-3p0-0-3p0-0-3p0-0-0----0--(let-ring)-----------------
d-3p0-0-3p0-0-3p0-0-0----0-----------------------------

Pre Chorus: x8
Chorus: x4

Outro:

e------------------------------------------------------
b------------------------------------------------------
g------------------------------------------------------
d-----------------------------------4------------------
a-----------------------------------3---3-0-0-3-5-0-0--
d-0-0---0---0---0---0--3-2--0---0-------3-0-0-3-5-0-0--

e------------------------------------------------------
b------------------------------------------------------
g------------------------------------------------------
d---------------------------------4--------------------
a------------3\2-3/5--------------3---3\2p0-3/5-0-2/3--
d-0---0---0--3\2-3/5--0-0---0---0-----3\2p0-3/5-0-2/3--

e------------------------------------------------------
b------------------------------------------------------
g------------------------------------------------------
d-----------------------------------4------------------
a-----------------------------------3---3-0-0-3-5-0-0--
d-0-0---0---0---0---0--3-2--0---0-------3-0-0-3-5-0-0--

e------------------------------------------------------
b------------------------------------------------------
g---------------------------------5--------------------
d---------------------------------4--------------------
a------------3\2-3/5--------------3--------------------
d-0---0---0--3\2-3/5--0-0---0---0----------------------

...dark for fear of failure and inner gloom as wide
as an eye and fermenting, roiling hate, death grip in 
my veins, unveiling rancid pedals, flowering forth
foul nectar, the space between a blink and a tear....
DEATH BLOOMS !

that's all

trevor jones
            
Submit corrections

comments powered by Disqus
↑ Back to top | Mudvayne Tabs for !!Deathblooms!!. Lyrics for acoustic guitar and electric guitar. 1 Tablatures and chords are parodies/interpretations of the original songs. You may use it for private study, scholarship, research or language learning purposes only