» » »

Mudvayne, Arde Papi Tabs (ver.1)

Artists:  A B C D E F G H I J K L M N O P Q R S T U V W X Y Z # 

Arde Papi Tabs (ver.1)

Mudvayne Tabs
 Rating:
4/5 (4 votes)
Arde Papi lessons Tabs too difficult? Try these video lessons and learn fast
1
                Gt.1
C#|------------|       
G#|------------|            
E |------------|           
B |------------|                
F#|------------|             
B |-/0-00-0-00-|      

Gt.2
C#|-------------------------|
G#|-10h11h10h11h10h11h10h11h|
E |-------------------------|
B |-------------------------|
F#|-------------------------|
B |-------------------------|     

Gt.1
C#|-------------------------|
G#|-------------------------|
E |-10h11h10h11h10h11h10h11h|
B |-------------------------|
F#|-------------------------|
B |-------------------------| 

Both
C#|---------------|       
G#|--/////-\\\\\--|            
E |-/////---\\\\\-|           
B |---------------|                
F#|---------------|             
B |---------------|

Intro 2:

Both
C#|-----------------------|       
G#|-----------------------|            
E |-----------------------|           
B |-----------------------|                
F#|-----------------------| X4            
B |-0-3-3-3-0--0-3-3-3-0--|
Pm    .....      .....

Gt.1
C#|-------------------------|
G#|-------------------------|
E |-10h11h10h11h10h11h10h11h|
B |-------------------------|
F#|-------------------------|
B |-------------------------|

Gt.2
C#|-------------------------|
G#|-10h11h10h11h10h11h10h11h|
E |-------------------------|
B |-------------------------|
F#|-------------------------|
B |-------------------------|     
      
Both
C#|---------------|       
G#|--/////-\\\\\--|            
E |-/////---\\\\\-|           
B |---------------|                
F#|---------------|             
B |---------------|

Pre-Verse

Both
C#|-----------------|     |--------|       
G#|-----------------|     |--------|            
E |-----------------|     |--------|           
B |-----------------|     |--------|                
F#|-0-4-0-1-0-4-0-0-| X4  |--------|             
B |-0-4-0-1-0-4-0-0-|     |-3-5-7b-|

Verse

Both
C#|-----------------|       
G#|-----------------|            
E |-----------------|           
B |-----------------|                
F#|-7-7-5-5-3-3-9-9-| X8            
B |-7-7-5-5-3-3-9-9-|
Pm .................

Both
C#|-----------------|     |--------|       
G#|-----------------|     |--------|            
E |-----------------|     |--------|           
B |-----------------|     |--------|                
F#|-0-4-0-1-0-4-0-0-| X4  |--------|             
B |-0-4-0-1-0-4-0-0-|     |-3-5-7b-|

Verse 2:

Both
C#|-----------------|       
G#|-----------------|            
E |-----------------|           
B |-----------------|                
F#|-------------7-7-|  X4         
B |-7-7-5-5-3-3-----|
Pm .................

Both
C#|-----------------|       
G#|-----------------|            
E |-----------------|           
B |-------------7---|                
F#|-7-7-5-5-3-3-7---|   X4        
B |-7-7-5-5-3-3-----|

Chorus:

Both                         Gt. 2
C#|-----------------|        |--------------------|
G#|-----------------|        |--------------------|
E |-----------------|        |--------------------|
B |-----------------|        |--------------------|
F#|-3-3-5-5-7-7-5-5-| X2     |-15/16-13-13-12h13~-|
B |-3-3-5-5-7-7-5-5-|        |--------------------|
Pm          ...

Both
C#|--------------------|       
G#|--------------------|            
E |--------------------|           
B |--------------------|                
F#|-0-3-1-0--0-0-3-1-0-|  X2        
B |-0-3-1-0--0-0-3-1-0-|

Introdule:

Gt.1
C#|-------------------------|
G#|-------------------------|
E |-10h11h10h11h10h11h10h11h|
B |-------------------------|
F#|-------------------------|
B |-------------------------|

Gt.2
C#|-------------------------|
G#|-10h11h10h11h10h11h10h11h|
E |-------------------------|
B |-------------------------|
F#|-------------------------|
B |-------------------------| 

Both
C#|---------------|       
G#|--/////-\\\\\--|            
E |-/////---\\\\\-|           
B |---------------|                
F#|---------------|             
B |---------------|

Gt.1
C#|---------------------|
G#|---------------------|
E |-7h8h7h8h7h8h7h8h7h8h|
B |---------------------|
F#|---------------------|
B |---------------------|

Gt.2
C#|---------------------|
G#|-7h8h7h8h7h8h7h8h7h8h|
E |---------------------|
B |---------------------|
F#|---------------------|
B |---------------------| 

Both
C#|---------------|       
G#|--/////-\\\\\--|            
E |-/////---\\\\\-|           
B |---------------|                
F#|---------------|             
B |---------------|

Gt.1
C#|-------------------------|
G#|-------------------------|
E |-10h11h10h11h10h11h10h11h|
B |-------------------------|
F#|-------------------------|
B |-------------------------|

Gt.2
C#|-------------------------|
G#|-10h11h10h11h10h11h10h11h|
E |-------------------------|
B |-------------------------|
F#|-------------------------|
B |-------------------------| 

Gt.1
C#|--------------|
G#|--------------|
E |--------------|
B |--------------|
F#|-00-0-00-0-00-|  Couple of Times
B |-00-0-00-0-00-| 

Verse 3:

Both
C#|---------------------|
G#|---------------------|
E |---------------------|
B |---------------------|
F#|-00-0-00-0-00-0-00-0-|  Couple of Times
B |-00-0-00-0-00-0-00-0-|

Chorus:

Both                         Gt. 2
C#|-----------------|        |--------------------|
G#|-----------------|        |--------------------|
E |-----------------|        |--------------------|
B |-----------------|        |--------------------|
F#|-3-3-5-5-7-7-5-5-|  X2    |-15/16-13-13-12h13~-|
B |-3-3-5-5-7-7-5-5-|        |--------------------|
Pm          ...

Both                         Gt. 2
C#|-----------------|        |----------------|
G#|-----------------|        |----------------|
E |-----------------|        |----------------|
B |-----------------|        |----------------|
F#|-3-3-5-5-7-7-5-5-|  X2    |-13/14/15/16/17-|
B |-3-3-5-5-7-7-5-5-|        |----------------|
Pm          ...

Both                         Gt. 2
C#|-----------------|        |------|
G#|-----------------|        |------|
E |-----------------|        |------|
B |-----------------|        |------|
F#|-3-3-5-5-7-7-5-5-|  X2    |-/13--|
B |-3-3-5-5-7-7-5-5-|        |------|
Pm          ...

Both                         Gt. 2
C#|-----------------|        |----------------|
G#|-----------------|        |----------------|
E |-----------------|        |----------------|
B |-----------------|        |----------------|
F#|-3-3-5-5-7-7-5-5-|  X2    |-13/14/15/16/17-|
B |-3-3-5-5-7-7-5-5-|        |----------------|
Pm          ...

Outro:

Both
C#|---------------------|
G#|---------------------|
E |---------------------|
B |---------------------|
F#|-00-0-00-0-00-0-00-0-| Rest of the Song
B |-00-0-00-0-00-0-00-0-|
            
Submit corrections

comments powered by Disqus
↑ Back to top | Mudvayne Tabs for Arde Papi. Lyrics for acoustic guitar and electric guitar. 1 Tablatures and chords are parodies/interpretations of the original songs. You may use it for private study, scholarship, research or language learning purposes only