>
 >
Zutazuta

Zutazuta Guitar Tabs

Mucc - Zutazuta chords, tabs, tablatures, lyrics

Guitar lessons | Add/correct | Request | Top 50 tabs Artists:  A B C D E F G H I J K L M N O P Q R S T U V W X Y Z 0-9

Zutazuta Guitar Tabs – Mucc

CD, Sheet music, Poster

Do you like Zutazuta? Share with your friends now
Tabs
NOTE: THIS TAB WAS MADE BY KNFE_PRTY, CONTACT HIM FOR PROBLEMS/QUESTIONS, ALL CREDIT GOES TO THIS GENIUS.

MUCC - Zutazuta

Give credit to -
Yahoo/Yahoo Messenger - Ganesa_XIII
AIM - IdenAndTity

Don't take, don't claim you made it, etc etc.
Enjoy it. Doitashimashite ^_^b

Tuning 7 string for 6 string guitars - B,E,A,D,G,B

Palm Mute/Mute Strings = X
Leave note to play = ~
Slide Down = \

Intro RIFF -
B|---------------------------------------------------------------------|
G|---------------------------------------------------------------------|
D|----2-----2-----2-----2-----2----------------------------------------|
A|--2-----2-----2-----2-----2---2------3------3------3------3------3---| x2
E|0-----0-----0-----0-----0----------3------3------3------3------3---3-|
B|---------------------------------1------1------1------1------1-------|

RIFF 1 -
B|-------------------------------|
G|-------------------------------|
D|2~~~~~~~~~~~~~~----------------|
A|2~~~~~~~~~~~~~~-3~~~~~~~~~~~~~~| x2
E|0~~~~~~~~~~~~~~-3~~~~~~~~~~~~~~|
B|----------------1~~~~~~~~~~~~~~|

RIFF 2 -                                     (Add another on the 2nd time at the end)
B|-----------------------------------------|    |-------|
G|-----------------------------------------|    |-------|
D|-----------------------------------------|    |-------|
A|2---2-----2------2-----------------------| x2 |-------|
E|0---0---0-0--0-0-0---3---3-----3------3--|    |---3---|
B|---------------------1---1---1-1--1-1-1--|    |---1---|
          X    X X             X    X X

Repeat 'RIFF 1' x4

RIFF 3 -
B|--------------------------------------------------------------------------------------|
G|--------------------------------------------------------------------------------------|
D|--------------------------------------------------------------------------------------|
A|2------2---2-----2------------------------2------2---2-----2--------------------------|x2
E|0--0-0-0---0-0-0-0---3------3---3-----3---0--0-0-0---0-0-0-0---3------3---3-----3--3--|
B|---------------------1--1-1-1---1-1-1-1------------------------1--1-1-1---1-1-1-1--1--|
     X X       X X        X X       X X        X X       X X        X X       X X

Repeat 'RIFF 1'

RIFF 4 Part 1 -
B|-------------------------------------------------------5--0-----|
G|-------------------------------------------------------------0--|
D|----------------------------------------------------------------|
A|2~~2~~~~----------------------2~~~~~----------------------------|
E|0~~0~~~~-------3~~3~~~~~~-----0~~~~~-------3~~~~~~~-------------|
B|---------------1~~1~~~~~~------------------1~~~~~~~-------------|

RIFF 4 Part 2 -
B|-------------------------------------------------------------|
G|-------------------------------------------------------------|
D|-------------------------------------------------------------|
A|2~~~~~------------------------2~~~~~~------------------------|
E|0~~~~~---------3~~3~~~2~~-----0~~~~~~------3~~~---2-2-2-2-2-2|
B|---------------1~~1~~~0~~------------------1~~~---0-0-0-0-0-0|
                                                    X X X X X X
Chorus RIFF 1 -
B|------------------------------------------|
G|------------------------------------------|
D|------------------------------------------|
A|------------------------------------------| x4
E|3~~~~~~5-5--5-5-5--7~~~~~~-7-7--7-7-7~~~~-|
B|1~~~~~~3-3--3-3-3--4~~~~~~-5-5--5-5-5~~~~-|
         X    X X            X    X X

RIFF 5 -
B|----------------------------------------------------------------|
G|----------------------------------------------------------------|
D|----2-----2---------2-----2---------2-----2---------2-----2-----|
A|--2-----2---2-----2-----2---2-----2-----2---2-----2-----2---2---| x2
E|0-----0-------0-1-----1-------1-3-----3-------3-1-----1-------1-|
B|----------------------------------------------------------------|

Breakdown RIFF 1 -
B|--------------------------------------------|
G|--------------------------------------------|
D|--------------------------------------------|
A|--------------------------------------------| x3
E|7-7-7-7-7---8-8-8-8---9-9-9-9-9---8-8-8-8---|
B|5-5-5-5-5---6-6-6-6---7-7-7-7-7---6-6-6-6---|
          X   X X X X           X   X X X X

Breakdown RIFF 2 -
B|-------------------------------------------------|
G|-------------------------------------------------|
D|-------------------------------------------------|
A|-------------------------------------------------|
E|7--7-7-7--7---8-8--8-8---9--9-9-9--9---8-8--8-8--|
B|5--5-5-5--5---6-6--6-6---7--7-7-7--7---6-6--6-6--|
     X X        X X           X X        X X

Repeat 'Intro RIFF' x2

Repeat 'RIFF 1' x4

Repeat 'Chorus RIFF' x4

Chorus RIFF 2 -
B|-------------------------------------------------------------------------------------------|
G|-------------------------------------------------------------------------------------------|
D|-------------------------------------------------------------------------------------------|
A|-------------------------------------------------------------------------------------------|
E|3~~~3~~~5-5--5-5-5--7~~~7~~~-7-7--7-7-7~~~---3~~~3~~~5-5--5-5-5--7~~~7~~~-7-7--7-7-7~~~7---|
B|1~~~1~~~3-3--3-3-3--4~~~4~~~-5-5--5-5-5~~~---1~~~1~~~3-3--3-3-3--4~~~4~~~-5-5--5-5-5~~~5---|
          X    X X             X    X X                X    X X             X    X X

Chorus RIFF 3 -
B|---------------------------------------------------------------------------------------------------|
G|---------------------------------------------------------------------------------------------------|
D|---------------------------------------------------------------------------------------------------|
A|---------------------------------------------------------------------------------------------------|
E|3~~~3~~~5-5--5-5-5--7~~~7~~~-7-7--7-7-7~~~---3~~~3~~~5-5--5-5-5--7~~~7~~~-7-7--7-7-7~~~7--7-7-7-7--|
B|1~~~1~~~3-3--3-3-3--4~~~4~~~-5-5--5-5-5~~~---1~~~1~~~3-3--3-3-3--4~~~4~~~-5-5--5-5-5~~~5--5-5-5-5--|
          X    X X             X    X X                X    X X             X    X X        X X X X

End RIFF -
B|--------------------------------------------------------------------------------------------------|
G|----9~~~~-----------------------------------------------------------------------------------------|
D|--9--~~~~----------10~~~\--------2-----2-----2-----2-----2----------------------------------------|
A|7---------------10---~~~\------2-----2-----2-----2-----2---2------3------3------3------3------3---|
E|--------------8--------------0-----0-----0-----0-----0----------3------3------3------3------3---3-|
B|--------------------------------------------------------------1------1------1------1------1-------|
                               X X X X X X X X X X X X X X X X  X X X  X X X  X X X  X

Repeat 'RIFF 1' x4

B|---------------|
G|---------------|
D|---------------|
A|---------------|
E|3--3--3--3-3-3-|
B|1--1--1--1-1-1-|
  X  X  X  X





Comments


Popular Mucc tabs & chords
Akanezora Chords
Gekkou Chords
Isho Chords
Kagerou Chords
Kinsenka Chords
Nageki No Kane Chords
Suna No Shiro Chords
Danzetsu Tabs
Shishite Katamari Tabs
Akanezora Ukulele


Song lyrics



↑ Back to top | Tablatures and chords are parodies/interpretations of the original songs. You may use it for private study, scholarship, research or language learning purposes only
© 2014 AZChords.com Contact us | Privacy policy | DMCA | Add/correct tabs | Request tabs | Top 50 tabs