» » »

Shishite Katamari Tabs (ver.1)

Artists:  A B C D E F G H I J K L M N O P Q R S T U V W X Y Z # 

Shishite Katamari Tabs (ver.1)

Mucc
Rating:
0/5 (0 votes)

Hard to play? Try these video lessons and learn fast.
                NOTE: THIS TAB WAS MADE BY KNFE_PRTY, ALL CREDIT GOES TO THIS PRO. ASK HIM FOR QUESTIONS/COMMENTS/PROBLEMS

MUCC - Shish*te Katamari

Give credit to -
Yahoo/Yahoo Messenger - Ganesa_XIII
AIM - IdenAndTity

Don't take, don't claim you made it, etc etc.
Enjoy it. Doitashimash*te ^_^b

Tuning 7 string for 6 string - B,E,A,D,G,B

Note - As we all know, Miya uses a 7 string, so I have transfered some notes to work on
       other strings instead, so your not really missing anything vital.

Palm Mute/Mute Strings = X
Slide Up = /
Slide Down = \

Intro -
B|-----------------|
G|-----------------|
D|-----------------| x5
A|9--------9-------|
E|7--------8-------|
B|-----------------|

RIFF 1 -
B|------------------------------------|
G|------------------------------------|
D|------------------------------------|
A|---4-----------------4--------------| x2
E|2--2--3--3/5\3-2--2--2--------------|
B|0-----------------0-----3--3/5\3-2--|

[Pause]

RIFF 2 -
B|------------------------------------|
G|------------------------------------|
D|------------------------------------|
A|---4--5--------------4--------------| x2
E|2--2--3--3/5\3-2--2--2--5-----------|
B|0-----------------0-----3--3/5\3-2--|

RIFF 3 -
B|--------------------------|
G|--------------------------|
D|--------------------------|
A|-------4----5----5/7\5-4--|
E|--2--2-2--3-3--3-3/5\3-2--|
B|0-0-----------------------|
  X    X    X    X

Verse RIFF 1 -
B|--------6---6-----------------6------|
G|7-------6---6----7------------6------|
D|4-------3--------4------------3------|
A|-------------------------------------|
E|-------------------------2-----------|
B|-------------------------0-----------|

Repeat 'RIFF 2' x2

RIFF 4 -
B|--------------------------------------------|
G|--------------------------------------------|
D|--------------------------------------------|
A|-------4----5----5/7\5-4-----4--------------|
E|--2--2-2--3-3--3-3/5\3-2--2--2--5-----------|
B|0-0-----------------------0-----3--3/5\3-2--|
  X    X    X    X

Repeat 'RIFF 2'

Verse RIFF 2 Part 1 -
B|--3-----3----------3-----3--------2-----3--3--3--3--7--7--7--7--5-------|
G|----4-----4---4------4-----4---4--3-----4--4--4--4--4--4--4--4--3--3----|
D|4-----4-----4----4-----4-----4----3-----4--4--4--4--4--4--4--4-----2----|
A|------------------------------------------------------------------------|
E|------------------------------------------------------------------------|
B|------------------------------------------------------------------------|
  X X X X X X X X X X X X X X X X

Verse RIFF 2 Part 2 - Miya doesn't play this,  Yukke actually plays this on bass, but oh well -
B|------------------------------------------------------------------------|
G|------------------------------------------------------------------------|
D|---4------4---5--5/7\5-4------4-------4---------------------------------|
A|2------2------------------0-------0------5--5/7\5-4------5--------5-----|
E|------------------------------------------------------3--------3--------|
B|------------------------------------------------------------------------|

B|------------------------------------------|
G|------------------------------------------|
D|------------------------------------------|
A|------------------------------------------|
E|9--9-9-9-9-9-9-9-9--9-10-9-7-9-7-5-7-5-4--|
B|7--7-7-7-7-7-7-7-7--7-8--7-5-7-5-3-5-3-2--|
     X X X X X X X X

Chorus RIFF 1 Part 1 -
B|-------------------------------------------------------------------------------------------------|
G|--7-7-7-7-7-7---7-7-7-7-7---6-6-6-6-----4-4-4-4-4---4-4-4-4-4---3-3-3-3-3-----------------3-3-3-3|
D|9-9-9-9-9-9-9-8-8-8-8-8-8-7-7-7-7-7-7-6-6-6-6-6-6-5-5-5-5-5-5-4-4-4-4-4-4-3-3-3-3-3-3-3-4-4-4-4-4|
A|9-9-9-9-9-9-9-9-9-9-9-9-9-7-7-7-7-7-7-7-7-7-7-7-7-5-5-5-5-5-5-4-4-4-4-4-4-4-4-4-4-4-4-4-4-4-4-4-4| x2
E|7-7-7-7-7-7-7-6-6-6-6-6-6-5-5-5-5-5-5-4-4-4-4-4-4-3-3-3-3-3-3-2-2-2-2-2-2-1-1-1-1-1-1-1-2-2-2-2-2|
B|-------------------------------------------------------------------------------------------------|

Breakdown RIFF -
B|--3-3----------------------------3-3--------------------------|
G|4-4-4-X---3-3-3-X---4-4-4-4-3--4-4-4-X---3-3-3-X---4-4-4-4-3--|
D|4-4-4-X-4-4-4-4-X-5-5-5-5-5-4--4-4-4-X-4-4-4-4-X-5-5-5-5-5-4--|
A|2-2-2-X-4-4-4-4-X-5-5-5-5-5-4--2-2-2-X-4-4-4-4-X-5-5-5-5-5-4--| x2
E|------X-2-2-2-2-X-3-3-3-3-3-2--------X-2-2-2-2-X-3-3-3-3-3-2--|
B|--------------------------------------------------------------|

Repeat 'RIFF 2' x2
Repeat 'RIFF 4'

B|------------------------------------------|
G|------------------------------------------|
D|------------------------------------------|
A|-------4----5----5/7\5-4------------------|
E|--2--2-2--3-3--3-3/5\3-2--2-2-2-2-2-2-2-2-|
B|0-0-----------------------0-0-0-0-0-0-0-0-|
  X    X    X    X          X X X X X X X X

Chorus RIFF 1 Part 2 -
B|-------------------------------------------------------------------------------|
G|-------7-----6---6---------6--4-----4---------4--3-3---3------------3-3-3-3-3--|
D|9------9---8-8---8--7------7--6-6---6--5------5--4-4---4--3------3--4-4-4-4-4--|
A|9--9-9-9---9-9-9-9--7--7-7-7--7-7-7-7--5--5-5-5--4-4-4-4--4--4-4-4--4-4-4-4-4--| x2
E|7--7-7-7---6-6-6-6--5--5-5-5--4-4-4-4--3--3-3-3--2-2-2-2--1--1-1-1--2-2-2-2-2--|
B|-------------------------------------------------------------------------------|
     X X         X       X X        X       X X        X       X X

Chorus RIFF 1 Part 3 -
B|-------------------------------------------------------------------------------|
G|---7-7-7-----6-6-6-----6-6-6----4-4-4-----4-4-4----3-3-3-----1-1-1----3-3-3-3--|
D|---9-9-9-----8-8-8-----7-7-7----6-6-6-----5-5-5----4-4-4-----3-3-3----4-4-4-4--|
A|9--9-9-9---9-9-9-9--7--7-7-7--7-7-7-7--5--5-5-5--4-4-4-4--4--4-4-4--4-4-4-4-4--| x2
E|7----------6--------5---------4--------3---------2--------1---------2----------|
B|-------------------------------------------------------------------------------|

[Pause]

Repeat 'RIFF 2' x2

B|--------||------------------------------------------------------------------------|
G|--------||------------------------------------------------------------------------|
D|--------||------------------------------------------------------------------------|
A|--------||----------X-X-X-4-X-X-X-5-X-X-X-5/7\5-4--------4-X-X--------------------|
E|--------||-------2--X-X-X-2-X-X-X-3-X-X-X-3/5\3-2--------2-X-X-2-X-X-5-X-X-5/7\5-2|
B|0-0-0-0-||-X-X-X-0---------------------------------X-X-X-------0-X-X-3-X-X-3/5\3-2|

Ending RIFF -
B|-----------------------------------------------------------------------|
G|-----------------------------------------------------------------------|
D|-----------------------------------------------------------------------|
A|-----------------------------------------------------------------------|
E|2----------14------15-----/18-----15-----14------10--------------------|
B|0----------0-------0-------0------0------0-------0---------------------|
            
Hard to play? Try these video lessons and learn fast. | Correct




comments powered by Disqus
↑ Back to top | Tablatures and chords are parodies/interpretations of the original songs. You may use it for private study, scholarship, research or language learning purposes only