» » »

Saishuu Ressha Tabs (ver.1)

Artists:  A B C D E F G H I J K L M N O P Q R S T U V W X Y Z # 

Saishuu Ressha Tabs (ver.1)

Mucc
Rating:
0/5 (0 votes)

Hard to play? Try these video lessons and learn fast.
                THERE WAS SAISHUU RESSHA TAB FOR GUITAR PRO 5 ONLY SO I MADE THIS GUITAR TAB HERE. USE 
IF YOU DON'T HAVE GUITAR PRO 5. !!! PLEASE COMMENT AND RATE!!!!
THANK YOU, ENJOY!
DON'T KNOW ABOUT THE TUNINGS, BUT YOU CAN PLAY IT WITH STANDARD TUNING.

1     2                3     4 VERSE 1                           5
E|-3-|---3------------|--8--|-----------------------------------|---------|
B|-3-|------3---------|--8--|---8---8----8---8----8---8---8---8-|--8---8--|
G|-4-|---------5---4~-|--8--|-----8--------8--------8-------8---|----7----|
D|-5-|----------------|--10-|-10-------10-------10------10------|-9-------|
A|-5-|----------------|-----|-----------------------------------|---------|
E|---|----------------|-----|-----------------------------------|---------|

                                                        4
E|------------------------|                             |------------------|
B|--8---8---8---8---8---8-|                             |---8---8---8---8--|
G|----7-------7-------7---|                             |-----8-------8----|
D|-9-------9-------9------|  REPEAT 4&5 !3 TIMES! THEN: |-10------10-------|
A|------------------------|                             |------------------|
E|------------------------|                             |------------------|


                    6                VERSE 1 END #1          7
E|-----------------|----------------------------------------|----------------|
B|---8---8---8---8-|----------------------------------7-8-7-|---8---8--8---8-|
G|-----8-------8---|---10---10---10---10---10---10----------|-----7------7---|
D|-10------10------|------10--------10--------10------------|-9-------9------|
A|-----------------|-8----------8---------8--------10-------|----------------|
E|-----------------|----------------------------------------|----------------|


E|---------------|-------------------8--8-7-7-|
B|--8---8--8---8-|---8---8----8---8--8--8-8-8-|
G|----7------7---|-----8--------8----8--8-7-7-| THEN VERSE 1 WITH END #2
D|-9------9------|-10------10-------10-10-9-9-|
A|---------------|----------------------------|
E|---------------|----------------------------|

            VERSE 1 END #2
          E|---------------------------------|-----------------X-X-X-X-X-X-X-|
          B|---8---8---8---8---8---8---8---8-|---8---8---8---8-X-X-X-X-X-X-X-|
WHICH IS: G|-----7-------7-------7-------7---|-----8-------8---X-X-X-X-X-X-X-|
          D|-9-------9-------9-------9-------|-10------10------X-X-X-X-X-X-X-|
          A|---------------------------------|-----------------X-X-X-X-X-X-X-|
          E|---------------------------------|-----------------X-X-X-X-X-X-X-|

      8 let ring-|                let ring-|                  let ring-|
E|-X-|---------------------------|-------------3-------------|--------------|
B|-X-|-4-----------4-------------|-4-----------------4-------|-3----------3-|
G|-X-|-5----------5--------5-----|-5--------5--------------5-|-4-------4----|
D|-X-|-6-----------------------6-|-5-------------------------|-5------------|
A|-X-|-6-------------------------|-3-------------------------|-5------------|
E|-X-|---------------------------|---------------------------|--------------|


               let ring-|                     let ring-|
E|----3-------|-3--------------------------3-|------------4-----------|
B|------------|-4------------4--------4------|-4----------------------|
G|----------4-|-5-------5-------5------------|-5-------5-------5------|
D|------------|-5----------------------------|-6-------------------6--|
A|------------|------------------------------|-6----------------------|
E|------------|------------------------------|------------------------|

 let ring-|
|------------3------------|---------------------------|----------------|
|-4----------------4------|-3--X-3--X-X--3--X-3--X-X--|-4--X-4--X-4--4-|
|-5-------5-------------5-|-4--X-4--X-X--4--X-4--X-X--|-5--X-5--X-5--5-|
|-5-----------------------|-5--X-5--X-X--5--X-5--X-X--|-5--X-5--X-5--5-|
|-3-----------------------|-5--X-5--X-X--5--X-5--X-X--|-3--X-3--X-3--3-|
|-------------------------|---------------------------|----------------|

little break then before chorus when Tatsurô sings: HOsh*tSUZUKI YOZORA NI....

9
|-----------------------------|-------------------------------|
|-----------------------------|-------------------------------|
|-5--X-5--5-5-5-5--X-5--5-5-5-|-------------------------------|
|-5--X-5--5-5-5-5--X-5--5-5-5-|--5--X-5--5-5-5-5--X-5--5-5-5--|
|-3--X-3--3-3-3-3--X-3--3-3-3-|--5--X-5--5-5-5-5--X-5--5-5-5--|
|-----------------------------|--3--X-3--3-3-3-3--X-3--3-3-3--|

|-----------------------------|-------------------------------|
|-----------------------------|-------------------------------|
|-----------------------------|--8--X-8--8-8-8-8--X-8----X-X--|
|-6--X-6--6-6-6-8--X-8--8-8-8-|--8--X-8--8-8-8-8--X-8----X-X--|
|-6--X-6--6-6-6-8--X-8--8-8-8-|--6--X-6--6-6-6-6--X-6----X-X--|
|-4--X-4--4-4-4-6--X-6--6-6-6-|-------------------------------|

                                part 9 end#1
|------------------------------|------X-X-X-X-X-X-X-X-|
|------------------------------|------X-X-X-X-X-X-X-X-|
|--5--X-5----X-X-4--X-4----X-X-|-5----X-X-X-X-X-X-X-X-| THEN REPEAT 9
|--6--X-6----X-X-5--X-5----X-X-|-5----X-X-X-X-X-X-X-X-| BUT END #2
|--6--X-6----X-X-5--X-5----X-X-|-3----X-X-X-X-X-X-X-X-|
|------------------------------|------X-X-X-X-X-X-X-X-|
part 9 end #2
|------------------------------|------------------------------|
|----------------6--X-6----X-X-|------------------------------|
|--5--X-5----X-X-5--X-5----X-X-|--5--X-5----X-X-4--X-4----X-X-|
|--5--X-5----X-X-3--X-3----X-X-|--6--X-6----X-X-5--X-5----X-X-|
|--3--X-3----X-X---------------|--6--X-6----X-X-5--X-5----X-X-|
|------------------------------|------------------------------|
                         let ring-|         10 time for solo!!
|-----------------------|-3-------3--------|---------------------|
|-------5-5-5-5-5-5-5-5-|-3----------3-----|---------------------|
|--5----5-5-5-5-5-5-5-5-|-4--------------5-|-4-------------------|
|--5----5-5-5-5-5-5-5-5-|-5----------------|---------------------|
|--3----5-5-5-5-5-5-5-5-|-5----------------|--------------/5-6-8-|
|-------5-5-5-5-5-5-5-5-|------------------|---------------------|

|-----------------------------|----------------------------|-------------|
|-----------------------------|----------------------------|-------------|
|-----------------------------|----------------------------|-------------|
|------------13----13-X-12----|-10\5-5-------5-----6-----8-|--10---8--10-|
|-10----10-11-----------------|----------------------------|-------------|
|-----------------------------|----------------------------|-------------|

-------------------------------------|----------------------------------|
-------------------------------------|----------------------------------|
----------------------------------13-|-13-----13-13-12-----X--12-13-12--|
---10-12-10--12--13---12-13---15-----|----------------------------------|
-------------------------------------|----------------------------------|
-------------------------------------|----------------------------------|

|---------------------------------|--------------------X-15-X-11--------|
|---------------------------------|-----------------13-----------13-----|
|-10----X--12--13-13---12--10-----|-----------10-12---------------------|
|------------------------------12-|--12-10-12---------------------------|
|---------------------------------|-------------------------------------|
|---------------------------------|-------------------------------------|

|------------------------------------|-------------------------------|
|------------------------------------|-------------------------------|
|-------10-13-12--X-12--10--8--10--7-|--7-----5-5----5-5-5-5-5-5-5-5-|
|--X-10------------------------------|---------------5-5-5-5-5-5-5-5-|
|------------------------------------|---------------5-5-5-5-5-5-5-5-|
|------------------------------------|---------------5-5-5-5-5-5-5-5-|


I'LL FINISH IT LATER!!  PLEASE SAY IF THERE'S SOMETHING YOU WOULD CHANGE.
            
Hard to play? Try these video lessons and learn fast. | Correct




comments powered by Disqus
↑ Back to top | Tablatures and chords are parodies/interpretations of the original songs. You may use it for private study, scholarship, research or language learning purposes only