» » »

Mucc, Kimi Ni Sachi Are Bass tabs (ver.1)

Artists:  A B C D E F G H I J K L M N O P Q R S T U V W X Y Z # 

Kimi Ni Sachi Are Bass tabs (ver.1)

Mucc Tabs
 Rating:
4/5 (4 votes)
Kimi Ni Sachi Are lessons Tabs too difficult? Try these video lessons and learn fast
1
                
don't expect this tab to be super accurate
with that being said this song is
pretty much the E and C song
as those are the notes you be playing
over and over again aside from the chorus

solo intro by guitar

main riff
G|-------------------|-------------------|in general the amount of E or C
D|-------------------|-------------------|I put is random
A|-------------------|-3-3-3-3-3-3-3-3-3-|just listen to the song and play
E|-0-0-0-0-0-0-0-0---|-------------------|along and you should do fine
repeats 

when tatsu comes in

verse
G|-------------------|-------------------|
D|-------------------|-------------------|
A|-------------------|-------------------|repeats
E|--0--0--0--0--0--0-|--8--8--8--8--8--8-|
listen to the song to hear how these notes are played
they are syncopated with the drums?

to end the first verse it is

G|-------------------|
D|-------------------|
A|-------------------|
E|----6--------7-----|

plays the main riff again

2nd verse
G|-------------------|-------------------|
D|-------------------|-------------------|
A|-------------------|-------------------|repeats
E|--8--8--8--8--8--8-|--0--0--0--0--0--0-|
almost an inversion of the first verse
listen to the song to hear how the notes are played

transition to the chorus
G|-------------------|
D|-------------------|
A|---2---------------|
E|-------------------|

chorus
G|--------------------------------------|
D|--------------------------------------|
A|--------------------------------------|
E|--3-3-3-3-3-3-2-2-2-2-2-2-0-0-0-0-2-3-|

G|-------------------------------------------------------------|
D|-------------------------------------------------------------|
A|-------------3-3-3-3-3-3-5-5-5-5-5-5-------------------------|
E|-5-5-5-5-3-2-------------------------3-3-3-3-3-3-5-5-5-5-5-5-|

repeat but with different end
G|--------------------------------------|
D|--------------------------------------|
A|--------------------------------------|
E|--3-3-3-3-3-3-2-2-2-2-2-2-0-0-0-0-2-3-|

G|-------------------------------------------------------------|
D|-------------------------------------------------------------|
A|-------------3-3-3-3-3-3-5-5-5-5-5-5---7--hold this note-----|
E|-5-5-5-5-3-2-------------------------------------------------|

the main riff again but played more intense 
the second time as miya plays the solo

verse played again, but this time the bass doesn't
come in until later
it's really hard to hear but it's played like the 2nd verse
try to listen to find the rhythm

chorus again

this parts played after this utilize the low B string to much
for me to figure it out srry, don't got one myself 
would want one though

the main riff is played to end the song
            
Submit corrections

comments powered by Disqus
↑ Back to top | Mucc Bass for Kimi Ni Sachi Are. Lyrics for acoustic guitar and electric guitar. 1 Tablatures and chords are parodies/interpretations of the original songs. You may use it for private study, scholarship, research or language learning purposes only