>
 >
Horizont

Horizont Bass Tabs

Mucc - Horizont chords, tabs, tablatures, lyrics

Guitar lessons | Add/correct | Request | Top 50 tabs Artists:  A B C D E F G H I J K L M N O P Q R S T U V W X Y Z 0-9

Horizont Bass Tabs – Mucc

CD, Sheet music, Poster

Do you like Horizont? Share with your friends now
Bass Tabs
There were a few mistakes in the one I previously submitted. Admins, if you read 
this please delete the previous one, thanks.

G|-12-------12-------12----11-------11-------11----------------------------|
D|----14-14----14-14----14----12-12----12-12----12-11-------11-------11----|
A|----------------------------------------------------12-12----12-12----12-|
E|-------------------------------------------------------------------------|

G|-----------------------------------2--------|
D|----------------------2--------------5-4----|
A|--------------2-2-5-2---5-4----2-5-------5--|
E|-2-2-2-2-2/7----------------5---------------|

G|------------------------------------|
D|------------------------------------|
A|-----4---7-5-4--------------5-5h7h5-|
E|-5-5---5-------5--3-5-7-5h7---------|

G|----------------------2-----------------------------------2-2h4h2-|
D|---------2--------------5-4---------------------------2h4---------|
A|-2-2-5-2---5-4----2-5-------5------4---7-5-4--------2-------------|
E|---------------5---------------5-5---5-------5--3-5---------------|

G|----------------------------------------------------------------------|
D|---------2----------------------------------------------4---4-5h7p5-4-|
A|-2-2-5-2---5-4--------2---5-5-4-2------4---7-5-4-5----5---5-----------|
E|---------------3----3---3----------5-5---5----------------------------|

G|--------------------------------------------------------------------|
D|--------------------------------------------------------------------|
A|------------------2-2-2-2-2-5-4-2---------------------------------0-|
E|-0-0-0-0-0-0-0-0-------------------3-3-3-3-3-3-3-3--2-2-2-2-2-2-3---|

G|--------------------------------------------------------------------|
D|---------2----------------------------------------------4---7---4---|
A|-2-2-5-2---5-4--------2---5-5-4-2------4---7-5-4-5----5---5---5---5-|
E|---------------3----3---3----------5-5---5--------------------------|

G|--------------------------------------------------------------------|
D|----------------------------------------------------------------2-2-|
A|------------------2-2-2-2-2-2-2-2-------------------2-2-4-4-5-5-----|
E|-0-0-0-0-0-2-3-5-------------------3-3-3-3-3-2-3-5------------------|

G|-11-------11-------11-----9-------9-------9----|
D|----12-12----12-12----12----11-11---11-11---11-|
A|-----------------------------------------------|
E|-----------------------------------------------|

G|-7-----7-----7----7-----7-6------|
D|---9-9---9-9---9----9-9-------9\-|
A|---------------------------------|
E|---------------------------------|

G|--------------------------------------------------------------------|
D|--------------------------------------------------------------------|
A|--------------------------------------------------------------------|
E|-0-0-0-0-0-0-0-0--0-0-0-0-0-0-0-0--5-5-5-5-5-5-5-5----2-2-2-2-2-2---|

G|-----------------------------------------------------------------|
D|---------5-4-2----------------------------7----------4-4-7-7-----|
A|-2--2--2------------------------------------7-5----5---------5-5-|
E|----------------3-3-3--3-3-3-3--5-5-5-5-5------------------------|

G|----------------------------------------------------------------------|
D|----------------------------------------------------4-4-4-4/5\4-2-----|
A|------------------7-7-7-7-7-7-7-5--0-0-0-0-0-2-4-5----------------5-4-|
E|-0-0-0-0-0-0-0-0------------------------------------------------------|

G|------------------------------------------------------------------|
D|---------5-4-2-----------------------------7----------------------|
A|-2--2--2-------------------------------------7-5----5-5-5-6-6-6-6-|
E|----------------3-3-3-3-3-3-3-3--5-5-5-5-5------------------------|

G|-------------------------------------------------|
D|----------------------------2-4------------------|
A|-7---0/10-9-7---5-5---2---2----------------------|
E|---7-----------------------------3-3-3-3-2-2-2-2-|

G|--------------------------------------------------------------------|
D|--------------------------------------------------------------------|
A|--------------------------------------------------------------------| x3
E|-3-3-3-3-3-3-3-3--3-3-3-3-3-3-3-3--2-2-2-2-2-2-2-2--2-2-2-2-2-2-2-2-|

G|--------------------------------------------------------------------|
D|--------------------------------------------------------------------|
A|--------------------------------------------------------4-4-7-5-4---|
E|-3-3-3-3-3-3-3-3--3-3-3-3-3-3-3-3--5-5-5-5-5-5-5-5--5-5-----------5-|

G|-11-------11-------11-----9-------9-------9----|
D|----12-12----12-12----12----11-11---11-11---11-|
A|-----------------------------------------------|
E|-----------------------------------------------|

G|-7-----7-----7----7-----7-----7---|
D|---9-9---9-9---9----9-9---9-9---9-|
A|----------------------------------|
E|----------------------------------|

G|-12-------12-------12-----11-------11-------11----|
D|----14-14----14-14----14-----12-12----12-12----12-|
A|--------------------------------------------------|
E|--------------------------------------------------|

G|-9-------9-------9----9-------9-11-12-11-9-|
D|---11-11---11-11---11---11-11--------------|
A|-------------------------------------------|
E|-------------------------------------------|

G|-11-------11-------11-----9-------|
D|----12-12----12-12----12----11-11-|
A|----------------------------------|
E|----------------------------------|

G|-9------------------------------------------------/16--14-12-11|
D|------11----11---12-------12-------12----12----12--------------|
A|---12----12---------14-14----14-14----14----14-----------------|
E|---------------------------------------------------------------|

G|----------------------------------------------------------------------|
D|----------------------------------------------------------------------|
A|----------------------------------------------------------------------|
E|-0-0-0-0-0-0-0-0--0-0-0-0-0-0-0-0--5-5-5-5-5-5-5-5----2-2-2-2-2-2-----|

G|-------------------------------------------------------------------------------|
D|----------------------------------------7---------4-4-7-7-4-4------------------|
A|------------------------------------------7-5---5------------------------------|
E|------------------------------5-5-5-5-5------------------------0-0-0-0-0-0-0-0-|

G|-------------------------------------------------------|
D|-------------------------------------4-4-4-4/5\4-2-----|
A|-7-7-7-7-7-7-7-5--0-0-0-0-0-0-2-4-5----------------5-4-|
E|-------------------------------------------------------|

G|--------------------------------------------------|
D|---------5-4-2------------------------------7-----|
A|-2--2--2--------------------------------------7-5-|
E|----------------3-3-3-3-3-3-3-3--5-5-5-5-5--------|

G|--------------------------------|
D|--------------------------------|
A|---5-5-5-6-6-6-6--7---0/10-9-7--|
E|--------------------7-----------|

G|----------------------------------|
D|-------------2-4------------------|
A|-5-5---2---2----------------------|
E|------------------3-3-3-3-2-2-2-2-|

G|------------------------------------------------------------------|
D|---------5-4-2-----------------------------7----------4-4-5-5-4-4-|
A|-2--2--2-------------------------------------7-5----5--------------|
E|----------------3-3-3-3-3-3-3-3--5-5-5-5-5-------------------------|

G|----------------------------------------------------------------------|
D|----------------------------------------------------4-4-4-4/5\4-2-----|
A|------------------7-7-7-7-7-7-7-5--0-0-0-0-0-2-4-5----------------5-4-|
E|-0-0-0-0-0-0-0-0------------------------------------------------------|

G|-------------------------------------------------|
D|---------5-4-2-----------------------------7-----|
A|-2--2--2-------------------------------------7-5-|
E|----------------3-3-3-3-3-3-3-3--5-5-5-5-5-------|

G|-------------------------------|
D|-------------------------------|
A|--5-5-5-6-6-6-6--7---0/10-9-7--|
E|-------------------7-----------|

G|----------------------------------|
D|-------------2-4------------------|
A|-5-5---2---2----------------------|
E|------------------3-3-3-3-2-2-2-2-|

G|----------------------------------------------------------------------|
D|----------------------------------------------------------4/5\4-4/5\4-|
A|-2-2-2-2-2-2-2--------------------0-0-0-0-0-0-0-----------------------|
E|---------------3---3-3-3-3-3-3-3----------------3---3-3-3-------------|

G|----------------------2-----------------------------------2-2h4h2-|
D|---------2--------------5-4---------------------------2h4---------|
A|-2-2-5-2---5-4----2-5-------5------4---7-5-4--------2-------------|
E|---------------5---------------5-5---5-------5--3-5---------------|

G|----------------------2-----------------------------|
D|---------2--------------5-4-------------------------|
A|-2-2-5-2---5-4----2-5-------5------4---7-5-4----3-3-|
E|---------------5---------------5-5---5-------5------|





Comments


Popular Mucc tabs & chords
Gekkou Chords
Kagerou Chords
Danzetsu Tabs
Dare Mo Inai Ie Tabs
Zutazuta Tabs
Dog Ukulele
Gerbera Ukulele
Nageki No Kane Ukulele
Sanbika Ukulele
Suna No Shiro Ukulele


Song lyrics



↑ Back to top | Tablatures and chords are parodies/interpretations of the original songs. You may use it for private study, scholarship, research or language learning purposes only
© 2014 AZChords.com Contact us | Privacy policy | DMCA | Add/correct tabs | Request tabs | Top 50 tabs