>
 >
Dare Mo Inai Ie

Dare Mo Inai Ie Guitar Tabs

Mucc - Dare Mo Inai Ie chords, tabs, tablatures, lyrics

Guitar lessons | Add/correct | Request | Top 50 tabs Artists:  A B C D E F G H I J K L M N O P Q R S T U V W X Y Z 0-9

Dare Mo Inai Ie Guitar Tabs – Mucc

CD, Sheet music, Poster

Do you like Dare Mo Inai Ie? Share with your friends now
Tabs

Yahoo/Yahoo Messenger - Ganesa_XIII
AIM - IdenAndTity


-----------------------------------------------------------------------
MUCC - Daremo Inai ie

Give credit to -
Yahoo/Yahoo Messenger - Ganesa_XIII
AIM - IdenAndTity

Don't take, don't claim you made it, etc etc.
Enjoy it. Doitashimashite ^_^b

Tuning 7 string - B,E,A,D,G,B,E

Palm Mute - X

Intro -
E|--------------------------------------|
B|13--------13--------13----------------|
G|11--------11--------11----------------|
D|10--------10--------10----------------|
A|--------------------------------------|
E|--------------------------------------|
B|---0--0-0----0--0-0----0--0-0--1--0---|
     X  X X    X  X X    X  X X

RIFF 1 -
E|--------------------------------------------------------------|
B|--------------------------------------------------------------|
G|------7------7-------6------6-------5------5-------4------4---|
D|------x------x-------x------x-------x------x-------x------x---| x2
A|------5------5-------4------4-------3------3-------2------2---|
E|--------------------------------------------------------------|
B|0-0-0---0--0---0-0-0---0--0---0-0-0---0--0---0-0-0---0--0-----|

Verse 1-1 -
E|--------------------------------------------------------------------------------------------------|
B|--------------------------------------------------------------------------------------------------|
G|--------------------------------------------------------------------------------------------------|
D|--------------------------------------------------------------------------------------------------|
A|9------------8-----------7-----------5-----------9-----------8------------7------------5----------|
E|10-----------9-----------8-----------7-----------10----------9------------8------------7----------|
B|--------------------------------------------------------------------------------------------------|

Verse 1-2 - [Wah Effect]
E|--------------------------------------------------------------------------------------------------------|
B|----------------------------------------------------------------------------------------------------13--|
G|11--11-11-11-10--10-10-10-9---9-9-9--8---8-8-8---11--11-11-11-10--10-10-10-9---9-9-9--8---8-8-8-----11--|
D|x---x--x--x--x---x--x--x--x---x-x-x--x---x-x-x---x---x--x--x--x---x--x--x--x---x-x-x--x---x-x-x-----10--|
A|9---9--9--9--8---8--8--8--7---7-7-7--6---6-6-6---9---9--9--9--8---8--8--8--7---7-7-7--6---6-6-6---------|
E|--------------------------------------------------------------------------------------------------------|
B|--------------------------------------------------------------------------------------------------0-----|
                                                                                                    X

RIFF 2 -
E|----------------------------------------------------------------------------------|
B|----------------------------------------------------------------------------------|
G|----------------------------------------------------------------------------------|
D|----------------------------------------------------------------------------------|
A|----------------------------------------------------------------------------------|
E|----------------------------------------------------------------------------------|
B|0--0-0-1-0-0--0-0-1-0--0-0-1-0-0--0-0-1-0--0-0-1-0-0--0-0-1-0--0-0-1-0-0--0-0-1-0-|

Verse 2-1 -
E|--------------------------------------------------------------------------------------------------|
B|--------------------------------------------------------------------------------------------------|
G|--------------------------------------------------------------------------------------------------|
D|------------------------------------------------------------------------11------------------------|
A|-------7--9-----8---8----7------5-----7------------7--9-----8---8---8-8-9----------9---------10---|
E|7-9-10------10----9------8----7-----9-------7-9-10------10----9-----9-9---------10-----12---------|
B|--------------------------------------------------------------------------------------------------|

Verse 2-2 -
E|--------------------------------------------------------------------------------|
B|--------------------------------------------------------------------------------|
G|--------------------------------------------------------------------------------|
D|--------------------------------------------------------------------------------|
A|9------9-------9----8-----8-----8----7-------7-------7----5-------5--------5----|
E|---10-----10-----10----9-----9----9------8-------8----8-------7-------7------7--|
B|--------------------------------------------------------------------------------|

RIFF 3 -
E|-------|
B|---13--|
G|---11--|
D|---10--| x2
A|-------|
E|-------|
B|-0-----|
   X

Chorus 1-1 -
E|-------------------------------------------------------------------------------|
B|-3--3-3-3-2--2-2-2-2--2-2-2-7--7-7-7-3--3-3-3-2--2-2-2-------------------------|
G|-4--4-4-4-3--3-3-3-4--4-4-4-7--7-7-7-4--4-4-4-3--3-3-3-------------------------|
D|-5--5-5-5-4--4-4-4-4--4-4-4-7--7-7-7-5--5-5-5-4--4-4-4-------------------------|
A|-5--5-5-5-4--4-4-4-2--2-2-2-5--5-5-5-5--5-5-5-4--4-4-4-------------------------|
E|-3--3-3-3-2--2-2-2-2--2-2-2-5--5-5-5-3--3-3-3-2--2-2-2-------------------------|
B|--------------------------------------------------------0--0-0-1-0-0--0-0-1-0--|

Chorus 1-2 -
E|--------------------------------------------------------|
B|-3--3-3-3-2--2-2-2-2--2-2-2-7--7-7-7-3--3-3-3-2--2-2-2--|
G|-4--4-4-4-3--3-3-3-4--4-4-4-7--7-7-7-4--4-4-4-3--3-3-3--|
D|-5--5-5-5-4--4-4-4-4--4-4-4-7--7-7-7-5--5-5-5-4--4-4-4--|
A|-5--5-5-5-4--4-4-4-2--2-2-2-5--5-5-5-5--5-5-5-4--4-4-4--|
E|-3--3-3-3-2--2-2-2-2--2-2-2-5--5-5-5-3--3-3-3-2--2-2-2--|
B|--------------------------------------------------------|

RIFF 4 -
E|----------------------------------------------------|
B|----------------------------------------------------|
G|----------------------------------------------------|
D|----------------------------------------------------| x2
A|3-2----------3-2----------3-2----------3-2----------|
E|----------------------------------------------------|
B|----0--0-0-0-----0--0-0-0-----0--0-0-0-----0--0-0-0-|
      X  X X X     X  X X X     X  X X X     X  X X X

RIFF 5-1 -
E|-------------------------------------------------------------|
B|-------------------------------------------------------------|
G|-------------------------------------------------------------|
D|-------------------------------------------------------------| x2
A|-------------------------------------------------------------|
E|-------------------------------------------------------------|
B|-0-0-0-3-3-3-2-2-2-5-5-5-3-3-7-7-6-6-6-3-3-3-5-5-5-2-2-3-3-2-|
   X X X X X X X X X X X X X X X X X X X X X X X X X X X X X X

RIFF 5-2 -
E|------------------------------------------|
B|------------------------------------------|
G|------------------------------------------|
D|------------------------------------------| x2
A|------------------------------------------|
E|2---5---4---7---5-9-8---5---7---4---5---4-|
B|0-0-3-0-2-0-5-0-3-7-6-0-3-0-5-0-2-0-3-0-2-|
    X   X   X   X       X   X   X   X   X

RIFF 5-3 -
E|------------------------------------------|
B|------------------------------------------|
G|------------------------------------------|
D|------------------------------------------| x3
A|------------------------------------------|
E|2----5----4----7--5--9-8---5---7---4--5-4-|
B|0----3----2----5--3--7-6---3---5---2--3-2-|

RIFF 5-4 -
E|------------------------------------------|
B|------------------------------------------|
G|------------------------------------------|
D|8--12-11--14-12--16-15--12-14--11-12-11---| x2
A|x--x--x---x--x---x--x---x--x---x--x--x----|
E|7--11-10--13-11--15-14--11-13--10-11-10---|
B|------------------------------------------|

Repeat - RIFF 3 - x2

Repeat - Chorus 1-1

Chorus 1-3 -
E|--------------------------------------------------------------------|
B|-3--3-3-3-2--2-2-2-2--2-2-2-7--7-7-7-3--3-3-3-2--2-2-2--2---2-3--2--|
G|-4--4-4-4-3--3-3-3-4--4-4-4-7--7-7-7-4--4-4-4-3--3-3-3--4---4-4--4--|
D|-5--5-5-5-4--4-4-4-4--4-4-4-7--7-7-7-5--5-5-5-4--4-4-4--4---4-4--4--|
A|-5--5-5-5-4--4-4-4-2--2-2-2-5--5-5-5-5--5-5-5-4--4-4-4--2---2-2--2--|
E|-3--3-3-3-2--2-2-2-2--2-2-2-5--5-5-5-3--3-3-3-2--2-2-2--2---2-2--2--|
B|--------------------------------------------------------------------|

Repeat - Chorus 1-1

Repeat - Chorus 1-2

Repeat - RIFF 1 - x2

Repeat - RIFF 3

Repeat - RIFF 2 - x2 (cut part of the end off when repeated)

End -
E|---------------------------------------------------|
B|13--------13--------13-----------------------------|
G|11--------11--------11-----------------------------|
D|10--------10--------10-----------------------------|
A|---------------------------------------------------|
E|----------------------------------3------3-3-3-3---|
B|---0--0-0----0--0-0----0--0-0--0--1------1-1-1-1---|
     X  X X    X  X X    X  X X  X





Comments


Popular Mucc tabs & chords
Kikanetsu Chords
Kokoro No Nai Machi Chords
Sanbika Chords
207 Tabs
Daikirai Tabs
Dakukuu Tabs
Saishuu Ressha Tabs
Isho Ukulele
Kikanetsu Ukulele
Kinsenka Ukulele


Song lyrics



↑ Back to top | Tablatures and chords are parodies/interpretations of the original songs. You may use it for private study, scholarship, research or language learning purposes only
© 2014 AZChords.com Contact us | Privacy policy | DMCA | Add/correct tabs | Request tabs | Top 50 tabs