» » »

Mucc, Danzetsu Tabs (ver.1)

Artists:  A B C D E F G H I J K L M N O P Q R S T U V W X Y Z # 

Danzetsu Tabs (ver.1)

Mucc Tabs
Rating:
0/5 (0 votes)
Danzetsu lessons Tabs too difficult? Try these video lessons and learn fast
                Intro
     C
E|----------------------------------------------------|
B|---------1--------1--------3--------1--------0h1----|
G|------------0--------0--------0--------0------------|
D|------2--------2--------2--------2--------2---------|  x2
A|---3------------------------------------------------|
E|----------------------------------------------------|


Bridge
    C               E             Am
E|--------------------------------------0----------------|
B|---------1------------0------------1-----1-------------|
G|------------0------1-----1------2-----------2-----2----|
D|------2---------2------------2-----------------2-------| x3
A|---3---------------------------------------------------|
E|-------------------------------------------------------|

      C               E             Am
E|--------------------------------------0-----------0---------------|
B|---------1------------0------------1-----1-----------1------------|
G|------------0------1-----1------2-----------2-----------2---------|
D|------2---------2------------2-----------------2-----------2------|
A|---3--------------------------------------------------------------|
E|------------------------------------------------------------------|


Verse
      C               E             Am
E|--------------------------------------0----------------|
B|---------1------------0------------1-----1-------------|
G|------------0------1-----1------2-----------2-----2----|
D|------2---------2------------2-----------------2-------|
A|---3---------------------------------------------------|
E|-------------------------------------------------------|
     Dm                            G
E|------------3--1---------------------3---------------------|
B|---------3--------3---------------0-----0------------------|
G|------2--------------2---------0-----------0---------------|
D|---0--------------------0---------------------0------------|
A|-------------------------------------------------2---------|
E|----------------------------3------------------------------|

      C               E             Am
E|--------------------------------------0-----------0---------------|
B|---------1------------0------------1-----1-----------1------------|
G|------------0------1-----1------2-----------2-----------2---------|
D|------2---------2------------2-----------------2-----------2------|
A|---3--------------------------------------------------------------|
E|------------------------------------------------------------------|

Repeat the Verse


Verse 2
Am                           Dm
Owari to iu genjitsu wo shiranakatta osanago wa

                                        Am
Amari ni mo muzan de zankokuna kotae wo shirasareta

                                              Dm
Jinbutsuzou de sae mada kare no naka ni kakutei shikitteinai no ni

                                              Am
Suki, kirai, dake no sekai de putsuri to shadansareta kiroku


Chorus
        F           E               Am       C
Doa wo akeru to midareta keshiki wa masshiro de

    F                E               Am              C
Kiita koto no nai urusai chinmoku ga totemo kurushikute

     F               E                    Am             C
Naresh*tashinda byoush*tsu wa boku hitori ni wa hirosugite

   F                   E                 Am
Atarashii shiitsu ga nazeka kanashimi no ato wo osu


Bridge


Verse3
      Am                                              Dm
Hi ga kureru ni sore ni tsure sore wa jojo ni katachi wo kaehajimeru

                                           Am
Daremokaremo ga hibi no haitta basho wo muriyari meyou otosh*ta

                                    Dm
Nandomo outo wo kurikaesukarerou fukai fukai mizo wa

                                         Am
Yagate nanimo umerarenai katachi ni henkeish*teyuku


Chorus


Chorus 2
     F                 E                 Am       C
Madogiwa ni kazarareta hana ga mushou ni itoshikute

     F                 E               Am           C
Memojou ni wa kotoba dake ga kanashiku tsuzurareteite

   F                E                  Am           C
Atatakai hazu no beddo wa doushiyoumonaku tsumetakute

    F              E                    Am
Doa wo aketemo ano keshiki ni wa nidoto deaenai


Outro
    F         E         Am      C
Sayonara, sayonara, sayonara, aaaaah
            

comments powered by Disqus
↑ Back to top | Mucc Tabs for Danzetsu. Lyrics for acoustic guitar and electric guitar. Tablatures and chords are parodies/interpretations of the original songs. You may use it for private study, scholarship, research or language learning purposes only