>
 >
Dakukuu

Dakukuu Guitar Tabs

Mucc - Dakukuu chords, tabs, tablatures, lyrics

Guitar lessons | Add/correct | Request | Top 50 tabs Artists:  A B C D E F G H I J K L M N O P Q R S T U V W X Y Z 0-9

Dakukuu Guitar Tabs – Mucc

CD, Sheet music, Poster

Do you like Dakukuu? Share with your friends now
Tabs
AT:

Yahoo/Yahoo Messenger - Ganesa_XIII
AIM - IdenAndTity


-----------------------------------------------------------------------

MUCC - Dankukuu

Give credit to -
Yahoo/Yahoo Messenger - Ganesa_XIII
AIM - IdenAndTity

Don't take, don't claim you made it, etc etc.
Enjoy it. Doitashimashite ^_^b

Tuning - B,E,A,D,G,B,E (7 string standard)

Palm Mute - x
Slide into from above - \\
Natural Harmonic *

Intro -
E|--------------------------------------|
B|--------------------------------------|
G|--------------------------------------|
D|--------------------------------------|
A|--------------------------------------|
E|2-2-2-2-2----2-2-2-2------------------|
B|0-0-0-0-0----0-0-0-0----0---3--5-6----|
  x x x x x    x x x x

RIFF 1 -
E|----------------------------------------------------------------|
B|----------------------------------------------------------------|
G|----------------------------------------------------------------|
D|----------------------------------------------------------------|
A|----------------------------------------------------------------|
E|2-2--5--4-7---2-2--5--4-3----2-2--5--4-7---2-2--5--4--3-3-3-3---|
B|0-0--3--2-5---0-0--3--2-1----0-0--3--2-5---0-0--3--2--1-1-1-1---|
                                                          x x x

RIFF 2-1 -
E|----------------------------------------------------------------|
B|----------------------------------------------------------------|
G|----------------------------------------------------------------|
D|----------------------------------------------------------------|
A|----------------------------------------------------------------|
E|-------5--4-7----------5--4-3----------5--4-7-----------5--4--3-|
B|0-0-0--3--2-5---0-0-0--3--2-1---0-0-0--3--2-5---0-0-0---3--2--1-|
  x x x           x x x           x x x           x x x

Verse 1 -                                                     On the 4th time have none 
notes at the end -
E|------------------------------------------------------|     E|----------------------------------------------------|
B|------------------------------------------------------|     B|----------------------------------------------------|
G|------------------------------------------------------|     G|----------------------------------------------------|
D|------------------------------------------------------| x4  D|----------------------------------------------------|
A|------------------------------------------------------|     A|----------------------------------------------------|
E|------------------------------------------------------|     E|----------------------------------------------------|
B|0-0-0-0-3-3-3-2-2-2-5-5-5-5-0-0-0-3-3-3-2-2-2-1-1-1-1-|     B|0-0-0-0-3-3-3-2-2-2-5-5-5-5-0-0-0-3-3-3-2-2-2-1-1-1-|
  x x x x x x x x x x x x x x x x x x x x x x x x x x x         x x x x x x x x x x x x xx x x x x x x x x x

Repeat RIFF 1

RIFF 2-2 -
E|----------------------------------------------------------------------|
B|----------------------------------------------------------------------|
G|----------------------------------------------------------------------|
D|----------------------------------------------------------------------|
A|----------------------------------------------------------------------|
E|-------5--4-7----------5--4-3----------5--4-7-------------------------|
B|0-0-0--3--2-5---0-0-0--3--2-1---0-0-0--3--2-5---0-0-0---3--2--1-1-1-1-|
  x x x           x x x           x x x           x x x   x  x  x x x x

Verse 2-1 -
E|---------------------------------------------------------------------------------------------|
B|---------------------------------------------------------------------------------------------|
G|---------------------------------------------------------------------------------------------|
D|---------------------------------------------------------------------------------------------|
A|---------------------------------------------------------------------------------------------|
E|7-7-7-7-10-10-10-9---7-7-7-7-10-10-10-9---12-12-12-7-7-7-10-10-10-9--8-8-8-7-7-7-10-10-10-9--|
B|---------------------------------------------------------------------------------------------|
  x x x x x x x x  x   x x x x x  x  x  x   x  x  x  x x x x  x  x  x  x x x x x x x  x  x x

Verse 2-2 -
E|----------------------------------------------------------------------------------------------------|
B|----------------------------------------------------------------------------------------------------|
G|----------------------------------------------------------------------------------------------------|
D|----------------------------------------------------------------------------------------------------|
A|----------------------------------------------------------------------------------------------------|
E|7-7-7-10-10-10-9--12-12-12-12--7-7-7-7-10-10-10-9---7-7-7-10-10-10-9---7-7-7-10-10-10-9-12-12-12-12-|
B|----------------------------------------------------------------------------------------------------|
  x x x x  x  x  x  x  x  x  x   x x x x x  x  x  x   x x x x  x  x  x   x x x x  x  x  xx  x  x  x

Verse 2-3 -
E|-------------------------------------------------------------------------------------------------------------------------|
B|-------------------------------------------------------------------------------------------------------------------------|
G|-------------------------------------------------------------------------------------------------------------------------|

x2
A|-------------------------------------------------------------------------------------------------------------------------|
E|7-7-7-10-10-10-9-9-9-12-12-12-12-7-7-7-7-10-10-10-9-9-9-8-8-8-8-7-7-7-10-10-10-9-9-9-12-12-12-7-7-7-10-10-10-9-9-9-8-8-8-|
B|-------------------------------------------------------------------------------------------------------------------------|
  x x x x  x  x  x x x x  x  x  x  x x x x x  x  x  x x x x x x x x x x x  x  x  x x x x 
x  x  x x x x  x  x  x x x x x x

Chorus 1-1 -
E|--------0----------------0----------------0------------------------------|
B|-----------0----------------0----------------0---------------------------|
G|--------------0----------------0----------------0------------------------|
D|-------------------------------------------------------------------------|
A|--2---------------3----------------2----------------3--------------------|
E|--2---------------3----------------2----------------3-----3-3--3-3-3-3---|
B|\\0---------------1----------------0----------------1-----1-1--1-1-1-1---|
                                                              X  X X X X

Chorus 1-2 -
E|------0----------------0----------------0-----------------------|
B|---------0----------------0----------------0--------------------|
G|------------0----------------0----------------0-----------------|
D|----------------------------------------------------------------|
A|2---------------3----------------2----------------5------3------|
E|2---------------3----------------2----------------3------3------|
B|0---------------1----------------0----------------3------1------|

RIFF 3 -
E|---------------------------------------------------------------------------------------|
B|---------------------------------------------------------------------------------------|
G|---------------------------------------------------------------------------------------|
D|---------------------------------------------------------------------------------------|
A|---------------------------------------------------------------------------------------|
E|---------------------------------------------------------------------------------------|
B|0-0-0-0--3--5-6--0-0-0-0--3--2-1--0-0-0-0-3-3-3-5-5-5-6-6-6-0-0-0-0-3-3-3-2-2-2-1-1-1--|
  x x x x          x x x x          x x x x x x x x x x x x x x x x x x x x x x x x x x

RIFF 4 -
E|-----------------------------------------------------------|
B|-----------------------------------------------------------|
G|-----------------------------------------------------------|
D|-----------------------------------------------------------|
A|-----------------------------------------------------------|
E|2-2-2--5--7-8--2-2-2--5--4-3--2-2-2--5--7-8--2-2-2-5--4-3--|
B|0-0-0--3--5-6--0-0-0--3--2-1--0-0-0--3--5-6--0-0-0-3--2-1--|

RIFF 5 -
E|---------------------------------------------------------------------|
B|---------------------------------------------------------------------|
G|---------------------------------------------------------------------|
D|---------------------------------------------------------------------|
A|---------------------------------------------------------------------|
E|------5---7---8--------5---4---3--------5---7---8----------------2---|
B|0-0-0-3-3-5-5-6--0-0-0-3-3-2-2-1--0-0-0-3-3-5-5-6--0-0-0-3--2--1-0---|
  x x x   x   x    x x x   x   x    x x x   x   x    x x x

Chorus 2-1 -
E|----------------------------------------------------------------------------------------------|
B|-----------------------------------------------------------------------------------5*5*5*5*5*-|
G|-----------------------------------------------------------------------------------5*5*5*5*5*-|
D|-----------------------------------------------------------------------------------5*5*5*5*5*-|
A|2----2-2-----------------3----3-3-----------------2----2-2-----------------3--3-3-------------|
E|2----2-2-----------------3----3-3-----------------2----2-2-----------------3--3-3-------------|
B|0----0-0---0-0-0--0-0-0--1----1-1---1-1-1--1-1-1--0----0-0---0-0-0--0-0-0--1--1-1-------------|

Chorus 2-2 -
E|-------------------------------------------------------------------------------------------------------|
B|-------------------------------------------------------------------------------------------------------|
G|-------------------------------------------------------------------------------------------------------|
D|-------------------------------------------------------------------------------------------------------|
A|-------------------------------------------------------2--------------------------------------5----3---|
E|--1-2---1-2---1-2---1-2---1-2----2-3---2-3---2-3---------5-3-2----1-2---1-2---1-2---1-2-------3----3---|
B|0-----0-----0-----0-----0------1-----1-----1-----1-1-1----------0-----0-----0-----0-----0-0-0-3----1---|
  x     x     x     x     x      x     x     x     x x x          x     x     x     x    
x x x

End 1 -
E|-------------------------------------------------------------------------|
B|-------------------------------------------------------------------------|
G|-------------------------------------------------------------------------|
D|-------------------------------------------------------------------------|
A|-------------------------------------------------------------------------|
E|-------------------------------------------------------------------------|
B|0-0-0-0---3--5-6---0-0-0-0---3--2-1---0-0-0-0---3--5-6---0-0-0-0--3--2---|
  x x x x            x x x x            x x x x            x x x x

End 2 -
E|--------------------------------------------------------------------------------------------------------------------------------|
B|--------------------------------------------------------------------------------------------------------------------------------|
G|--------------------------------------------------------------------------------------------------------------------------------|
D|--------------------------------------------------------------------------------------------------------------------------------|
A|--------------------------------------------------------------------------------------------------------------------------------|
E|------------------------------------------------------------------------------------------------------------------------------3-|
B|0-0-0-0-0-3-3-3-3-3-5-5-5-6-6-6-6-0-0-0-0-0-3-3-3-3-3-3-2-2-2-1-1-1-1-0-0-0-0-0-3-3-3-3-3-3-5-5-5-6-6-6-6-0-0-0-0-0-3-3-3-3-2-1-|
  x x x x x x x x x x x x x x x x x x x x x x x x x x x x x x x x x x x x x x x x x x x xx x x x x x x x x x x x x x x x x x x





Comments


Popular Mucc tabs & chords
Horizont Bass Tabs
Gekkou Chords
Gerbera Chords
Isho Chords
Kikanetsu Chords
Chain Ring Tabs
Libra Tabs
Zutazuta Tabs
Ryuusei Ukulele
Suna No Shiro Ukulele


Song lyrics



↑ Back to top | Tablatures and chords are parodies/interpretations of the original songs. You may use it for private study, scholarship, research or language learning purposes only
© 2014 AZChords.com Contact us | Privacy policy | DMCA | Add/correct tabs | Request tabs | Top 50 tabs