» » »

Mucc, Daikirai Tabs (ver.1)

Artists:  A B C D E F G H I J K L M N O P Q R S T U V W X Y Z # 

Daikirai Tabs (ver.1)

Mucc Tabs
 Rating:
4/5 (4 votes)
Daikirai lessons Tabs too difficult? Try these video lessons and learn fast
1
                

-----------------------------------------------------------------------------
MUCC - Daikirai

(Another piece from the Ganesa Guitarist)
Give credit -
Don't steal give credit blah blah blah!

Tuning - (for 6 string) B,E,A,D,G,B


(Intro)
(Play this as many times as it is, I can't be bothered to count)
B|-----------------------|
G|-----------------------|
D|11X11111111X11X1111X11X|
A|10X10101010X10X1010X10X|
E|9-X9-9-9-9-X9-X9-9-X9-X|
B|--X--------X--X----X--X|

B|-----------------------|
G|-----------------------|
D|-----------------------|
A|-----------------------|X4(?)
E|4-2-4-----2-4-2-4-----2|
B|2-0-2-3-2-0-2-0-2-3-2-0|
        X X X       X X X

B|-------------------------------------|
G|-------------------------------------|
D|---------7~~~~-------------7---------|
A|---------7~~~~-------------7---------|
E|4~~~7~~~~5~~~~5~~~4---7----5---555555|
B|2~~~5~~~~-----3~~~2---5--------333333|
                                 XXX

B|----------------------------------------|
G|------------6-6-----5-5-----------------|
D|------------7-7-----6-6-------------7-6-|
A|------------7-7-6-6-6-6-------------7-6-|
E|4-4-7-7-7-7-5-5-4-4-4-4-4-4-7-7-7-7-5-4-|
B|2-2-5-5-5-5-------------2-2-5-5-5-5-----|
      X           X X         X X    

B|------------------------------------------|
G|------------------------------------------|
D|---------7~~~~-------------7--------------|
A|---------7~~~~-------------7--------------|
E|4~~~7~~~~5~~~~5~~~4---7----5---------5-5-5|
B|2~~~5~~~~-----3~~~2---5--------3-3-3-3-3-3|
                                 X X X

B|-----------------------------------------------|
G|------------6-6-----5-5-------------6-6-----5-5|
D|------------7-7-----6-6-------------7-7-----6-6|
A|4-4-----7-7-7-7-6-6-6-6-4-4-----7-7-7-7-6-6-6-6|X2
E|4-4-7-7-7-7-5-5-4-4-4-4-4-4-7-7-7-7-5-5-4-4-4-4|
B|2-2-5-5-5-5-------------2-2-5-5-5-5------------|
      X           X X         X X         X X

B|-------------------------------------------------|
G|-------------------------------------------------|
D|-------------------------------------------------|
A|-------------------------------------------------|
E|4-2-4-------4-2-4-5-4-------4-2-4-------4-2-4-5-4|
B|2-0-2-3-2-0-2-0-2-3-2-------2-0-2-3-2-0-2-0-2-3-2|
        X X X       X X             X X X       X X

B|---------------------|
G|---------------------|
D|---------------------|
A|---------------------|X4
E|4-2-4-54-2-4-2-4-54-2|
B|2-0-2-32-0-2-0-2-32-0|
        XX X       XX X

B|--------------10-10X99-10-9------------------1010XXX|
G|--6-6XXX--9-9-9--9-X88-9--8------6-6XXX9-9-9-9-9-XXX|
D|6-6-6XXX9-9-9-7--7-X66-7--6----6-6-6XXX9-9-9-7-7-XXX|
A|4-4-4XXX7-7-7-7--7-X66---------4-4-4XXX7-7-7-7-7-XXX|
E|4-4-4---7-7-7------------------4-4-4---7-7-7-----XXX|
B|----------------------------------------------------|

B|------------------------------------------------------|
G|------------------------------------------------------|
D|-------------------------------------------------66666|
A|--------------7X77X7-6X66X6---------------7X77X7-66666|
E|4X44X4-7X77X7-5X55X5-4X44X4-4X44X4-7X77X7-5X55X5-44444|
B|2X22X2-5X55X5---------------2X22X2-5X55X5-------------|
    XX     XX     XX     XX     XX     XX     XX

                           (On the 4th time)
B|-----------------------|   B|---------------------------|
G|--------------6-6---5-5|   G|---------------------------|
D|--------------7-7---6-6|   D|---------------------------|
A|--4-4---7-7-7-7-7-6-6-6|X4 A|--4-4---7-7-7~~~6~~~-------|
E|4-4-4-7-7-7-5-5-5-4-4-4|   E|4-4-4-7-7-7-5~~~4~~~-------|
B|2-2-2-5-5-5------------|   B|2-2-2-5-5-5-5~~~4~~~3-5-3-2|
  X     X     X     X         X     X             X X X X
                       

B|-----------------------|
G|-----------------------|
D|-----------------------|
A|-----------------------|X4
E|4-2-4-------4-2-4------|
B|2-0-2-3-2-0-2-0-2-3-2-0|
        X X X       X X X
            
Submit corrections

comments powered by Disqus
↑ Back to top | Mucc Tabs for Daikirai. Lyrics for acoustic guitar and electric guitar. 1 Tablatures and chords are parodies/interpretations of the original songs. You may use it for private study, scholarship, research or language learning purposes only