» » »

Mucc, Bouzenjishitsu Tabs (ver.1)

Artists:  A B C D E F G H I J K L M N O P Q R S T U V W X Y Z # 

Bouzenjishitsu Tabs (ver.1)

Mucc Tabs
 Rating:
4/5 (4 votes)
Bouzenjishitsu lessons Tabs too difficult? Try these video lessons and learn fast
1
                

------------------------------------------------------------------------------
MUCC - Bouzenjish*tsu
Another excellent song from MUCC


Give credit to me, don't take blah blah blah.
Should all know it all by now...
ENJOY! XD

(for six string guitar)
Tuning - B,E,A,D,G,B

Palm Mute - X
Slide Down - \\
Slide Up - //
BA - Bass Guitar notes
Bend up and down - ^
Natural Harmonic - H

Intro
B|-------------------------------------|
G|-------------------------------------|
D|-------------------------------------|
A|-------------------------------------|
E|----------------------------------3-3|
B|\\0-0-1-2--0-0-2-1--0-0-1-2--0-0--1-1|
          ^        ^        ^

RIFF 1                                              [add harmonics on the 2nd time at end]
B|-----------------------------------------XXXX|    B|7777777|
G|-----------------------------------------XXXX|    G|7777777|
D|-----------------------------------------XXXX| x2 D|7777777|
A|-----------------------------------------XXXX|    A|7777777|
E|2---2----3--2---2----3--2---2----3--2---2----|    E|-------|
B|0-0-0--0-1--0-0-0--0-1--0-0-0--0-1--0-0-0----|    B|-------|
    X    X      X    X      X           X             HHHHHHH

RIFF 2 (verse)
B|-----------------------------------------------------------------------|
G|-----------------------------------------------------------------------|
D|12-12---12---12---11-11---11---11---15-15---15----15---14---14141414---| x2
A|9-----9----9----9-8-----8----8----8-12---12----12---12-11---11111111---|
E|-----------------------------------------------------------------------|
B|-----------------------------------------------------------------------|
     X  X X  X X  X X  X  X X  X X  X    X X  X  X  X X       X X

RIFF 3
B|----------------------------------------------------------XXXX|
G|----------------------------------------------------------XXXX|
D|----------------------------------------------------------XXXX| x2
A|----------------------------------------------------------XXXX|
E|23--44--23--44--23--44--23--44--23--44--23--44--23--44--22----|
B|01--22--01--22--01--22--01--22--01--22--01--22--01--22--00----|
      X       X       X       X       X       X       X

Repeat 'RIFF 2'
                                                  [on the 2nd time, add extra of the end notes]
B|--------------------------------------------------------------------------------------------|
G|--------------------------------------------------------------------------------------------|

x2
A|9-9-9-9--9--9--9--8-8-8-8--8--8--8--12-12-12-12--12--12--12--12--11-11-11-11--11--11--11--11|
E|--------------------------------------------------------------------------------------------|
B|--------------------------------------------------------------------------------------------|

Repeat ' RIFF 3'

RIFF 4 part 1(Chorus)
B|-------------------------------------------------------------|
G|4-4-4-4-4-4-4-4-4-4-4-4-4-4-4-4-4-4-4-4-4-4-4-4-4-4-4-4-4-4-4|
D|4-4-4-4-4-4-4-4-4-4-4-4-4-4-4-4-4-4-4-4-4-4-4-4-4-4-4-4-4-4-4| x2
A|2-2-2-2-2-2-2-2-2-2-2-2-2-2-2-2-2-2-2-2-2-2-2-2-2-2-2-2-2-2-2|
E|2-2-2-2-2-2-2-2-2-2-2-2-2-2-3-3-3-3-3-3-3-3-3-2-2-2-2-2-2-2-2|
B|0-0-0-0-0-0-0-3-3-3-3-3-3-3----------------------------------|

RIFF 4 part 2(Chorus)
B|--------------------------------0-0-0-0------0-0-0-0-0-|
G|------0-0-0-0------0-0-0-0------0-0-0-0------0-0-0-0-0-|
D|------0-0-0-0------0-0-0-0--5---5-5-5-5--5---4-4-4-4-4-| x2
A|--2---2-2-2-2--5---5-5-5-5--5---5-5-5-5--5---4-4-4-4-4-|
E|--2---2-2-2-2--5---5-5-5-5--3---3-3-3-3--2---2-2-2-2-2-|
B|\\0---0-0-0-0--3---3-3-3-3-----------------------------|

(Time this correctly with the bass)
B|---------------------XXXX------------------|
G|---------------------XXXX------------------|
D|---------------------XXXX------------------|
A|---------------------XXXX------------------|
E|2-2--------2----2---------2-2--------2----2|
B|0-0--------0----0---------0-0--------0----0|
                                            X
B|----XXX---XXX--XXXXX--------------------XXX--XXX-XXXXX--------------------|
G|----XXX---XXX--XXXXX--------------------XXX--XXX-XXXXX--------------------|
D|----XXX---XXX--XXXXX--------------------XXX--XXX-XXXXX--------------------| x2
A|----XXX---XXX--XXXXX--------------------XXX--XXX-XXXXX---------3----------|
E|2-2------------------2-2------3-----2-2---------------2-2------1----4-3---|
B|0-0------------------0-0--0-0-1-----0-0---------------0-0--0-0------2-1---|
                            X X                              X X      X X

     B|------------------------------------|
     G|------------------------------------|
     D|------------------------------------| x2
     A|------0--------0--------0--------0--|
     E|----2--------2--------2--------2---2|
     B|--2--------2--------2--------2------|
BA - B|0--------1--------2--------1--------|

                                                        [add harmonics on the 2nd time]
B|-------------------------------------------------|    B|XXXXX|
G|7-7-7-7-7-7-7-7-7-6-6-6-6-6-6-6-6-7-7-7-7-7-7-7-7|    G|XXXXX|
D|-------------------------------------------------| x2 D|XXXXX|
A|5-5-5-5-5-5-5-5-5-4-4-4-4-4-4-4-4-5-5-5-5-5-5-5-5|    A|XXXXX|
E|-------------------------------------------------|    E|-----|
B|-------------------------------------------------|    B|-----|
                                                          HHHHH

B|------------------------|
G|------------------------|
D|------------------------|
A|------------------------|
E|--2--5--7--5--8--7--5--4|
B|\\0--3--5--3--6--5--3--2|
                X  X  X  X

Repeat 'Intro'

RIFF 1 (short version)
B|------------------------------------------XXXX|
G|------------------------------------------XXXX|
D|------------------------------------------XXXX| x2
A|------------------------------------------XXXX|
E|23--44--23--44--23--44--23--44--23--44-22-----|
B|01--22--01--22--01--22--01--22--01--22-00-----|
      X       X       X       X       X

B|-----------------------------------------------|
G|4-4-4-4-4-4-4-4-4-4-4-4-4-4-4-4-4-4-4-4-4-4-4-4|
D|4-4-4-4-4-4-4-4-4-4-4-4-4-4-4-4-4-4-4-4-4-4-4-4| x2
A|2-2-2-2-2-2-2-2-2-2-2-2-2-2-2-2-2-2-2-2-2-2-2-2|
E|2-2-2-2-2-2-2-2-2-2-2-2-2-3-3-3-3-3-3-2-2-2-2-2|
B|0-----------3-----------3----------------------|
    X X X X X   X X X X X [don't add PM on the 2nd time]

Repeat 'RIFF 4 Part 2'
Repeat 'RIFF 1'

End
B|---------------------------------------------------|
G|---------------------------------------------------|
D|---------------------------------------------------| x2
A|---------------------------------------------------|
E|---------------------------------------------------|
B|0--0--0-1-1---0--0--1-2-1-0--0--0-1-1---0--0--1-2-1|
            ^         X X X           ^         X X X

B|---------------|
G|---------------|
D|3-4-1----------|
A|1-2-1----------|
E|-------3--3----|
B|-------1--1//\\|
            
Submit corrections

comments powered by Disqus
↑ Back to top | Mucc Tabs for Bouzenjishitsu. Lyrics for acoustic guitar and electric guitar. 1 Tablatures and chords are parodies/interpretations of the original songs. You may use it for private study, scholarship, research or language learning purposes only