» » »

207 Tabs (ver.1)

Artists:  A B C D E F G H I J K L M N O P Q R S T U V W X Y Z # 

207 Tabs (ver.1)

Mucc
Rating:
0/5 (0 votes)

Hard to play? Try these video lessons and learn fast.
                Tuning is Drop B: C# G# E B F# B

Intro:

|---------------------------------------------------------------------------|
|---------------------------------------------------------------------------|
|-1/---15(x8)--13(x10)---15(x10)--13(x10)-----------------------------------|
|---------------------------------------------------------------------------|
|---------------------------------------------------------------------------|
|---------------------------------------------------------------------------|

Main Riff:

|--------------------------------------------------------------------------|
|--------------------------------------------------------------------------|
|--------------------------------------------------------------------------|
|---------1--0--x-x--0--1--0--x--x--0--1-0--x--x--0-1--0--3--3-------------|
|---------1--0--x-x--0--1--0--x--x--0--1-0--x--x--0-1--0--3--3-------------|
|-0(x6)---1--0--x-x--0--1--0--x--x--0--1-0--x--x--0-1--0--3--3-------------|
  **** 



Bridge(1:06):

|--18------17-------18-----17-----------------------------------------------|
|--15------15-------15-----15------11--11-----------------------------------|
|--15(x8)--15(x8)---15(x8)-15(x8)--14--12-----------------------------------|
|---------------------------------------------------------------------------|
|---------------------------------------------------------------------------|
|---------------------------------------------------------------------------|
            
Hard to play? Try these video lessons and learn fast. | Correct




comments powered by Disqus
↑ Back to top | Tablatures and chords are parodies/interpretations of the original songs. You may use it for private study, scholarship, research or language learning purposes only