» » »

Mr. Big, Be With You Bass tabs (ver.1)

Artists:  A B C D E F G H I J K L M N O P Q R S T U V W X Y Z # 

Be With You Bass tabs (ver.1)

Mr. Big Tabs
Rating:
0/5 (0 votes)
Be With You lessons Tabs too difficult? Try these video lessons and learn fast
                Verses [FIG.1]                                                 2x
G|-----------------------------------------------------------------|
D|o---------------------------------------------------------------o|
A|o-12/4-------4-------4-----7------------------------------------o|
E|---------------------------------5-----------5-----0----------0--|
            Hold on little girl  show me what he's done to you

  Verses [FIG.2]                2x
G|--------------------------------|
D|o------------------------------o|
A|o------------------------------o|
E|--5----------------5------0-----|
  When it's through it's through
  fate will twist the both of you

  Verses [FIG.3]
G|------7---7--------7---7-------4------4------4-------4---|
D|---------------------------------------------------------|
A|--5-----5-----5------5------2-----2-------2------2-------|
E|---------------------------------------------------------|
  Come on baby come on over  let me be the one to show you

  Chorus
G|-------------------------------------|----------
D|-------------------------------------|----------
A|-------------5-----------------------|----------
E|-0---2---4------5------5--7--7----0--|-0-0-0-0--
  I'm the one who wants to be with you  {no words}

G|------------------------------------|----------
D|------------------------------------|----------
A|------------5--------------------7--|-7-7-7-7--
E|-0----2--4-----5----5---2---2-------|----------
  Deep inside I hope you feel it too   {no words}

G|------------------------------------|----------
D|------------------------------------|----------
A|----------5-----------2-----2---4---|-4-4-4-4--
E|-0--2--4-----5---5------------------|----------
  Waited on a line of greens and blue  {no words}

G|-----------------------------------|-----
D|-----------------------------------|-----
A|------------5----------------------|-12/-
E|-0---2---4------5---5-----------0--|-----
  Just to be the next to be with you

  Bridge
G|----------------------------------------
D|----------------------------------------
A|-----------------4----------------------
E|-5--------------------------------------
     Why be alone   we can be together baby

G|-----------------------------------------------------------|-------------------
D|-----------------------------------------------------------|-------------------
A|-----------------------------------------------------------|-------------------
E|4/5--------------------------------4/5-------------5-5-5-5-|-Guitar solo starts 
  You can make my life worthwile  and I can make you start to  smile

Guitar solo: play Chorus

Play Verse FIG.2 and verse FIG.3 (stop playing at 'the one')

G|-------------------------------------|----------
D|--------------2----------------------|----------
A|---------2-------3-----3--5---5------|----------
E|-3---5-----------------------------3-|-3-3-3-3--
  I'm the one who wants to be with you  {no words}

G|------------------------------------|----------
D|------------2-----------------------|-5-5-5-5--
A|---------2------3---3----5--5-------|----------
E|-3----5-------------------------3---|----------
  Deep inside I hope you feel it too   {no words}

G|------------------------------------|----------
D|----------2---------------------2---|-2-2-2-2--
A|--------2----3----3---5-----5-------|----------
E|-3---5------------------------------|----------
  Waited on a line of greens and blue  {no words}

G|-----------------------------------|----------
D|------------2----------------------|----------
A|--------2-------3---3--5---5-------|----------
E|-3---5---------------------------3-|-12/------
  Just to be the next to be with you

  Chorus
G|-------------------------------------|----------
D|-------------------------------------|----------
A|-------------5-----------------------|----------
E|-0---2---4------5------5--7--7----0--|-0-0-0-0--
  I'm the one who wants to be with you  {no words}

G|------------------------------------|----------
D|------------------------------------|----------
A|------------5--------------------7--|-7-7-7-7--
E|-0----2--4-----5----5---2---2-------|----------
  Deep inside I hope you feel it too   {no words}

G|------------------------------------|----------
D|------------------------------------|----------
A|----------5-----------2-----2---4---|-4-4-4-4--
E|-0--2--4-----5---5------------------|----------
  Waited on a line of greens and blue  {no words}

G|--------------------------------------|
D|--------------------------------------|
A|--------------------------------------|
E|-0--------------5---5--7---7------0-~-|
  Just to be the next to be with   you
            

comments powered by Disqus
↑ Back to top | Mr. Big Bass for Be With You. Lyrics for acoustic guitar and electric guitar. Tablatures and chords are parodies/interpretations of the original songs. You may use it for private study, scholarship, research or language learning purposes only