» » »

Mr. Big, Anything For You Tabs (ver.1)

Artists:  A B C D E F G H I J K L M N O P Q R S T U V W X Y Z # 

Anything For You Tabs (ver.1)

Mr. Big Tabs
 Rating:
4/5 (4 votes)
Anything For You lessons Tabs too difficult? Try these video lessons and learn fast
                -------------------------------------------------------------------------------
                            Anything for You - Mr.Big
-------------------------------------------------------------------------------

I wrote this tab becouse i didn't find the right tab on the site, so enjoy 
the song and watchout for the sweep part in the end of solo.
I hope you like it:)
   
   Intro (clean)

E-|--8-----5-----7-----5----------3-----3--3-----2---------------2---------|
B-|----8-----8-----8-----7------3-----3------3-----3-----------3-----------|
G-|------7-----7-----7-----7--5-----4----------2-----2-------0-------------|
D-|--------------------------------------------------------0--------2~-----|
A-|------------------------------------------------------2----------2~-----|
E-|-----------------------------------------------------------------0~-----|

e-|---------2---------------2----0------------0-----------------3-----3-------3--|
B-|-------3---------------3--------3---3----3---3---3---3---3-----3-----3---3----|
G-|-----0---------------0------2-----2----2-------2---2---2---5-----5-----5------|
D-|---0--------2~-----0----------------------------------------------------------|
A-|-2----------2~---2------------------------------------------------------------|
E-|------------0~----------------------------------------------------------------|

    Pre verse  
e-|---------2---------------2-------2--------------------------------------|
B-|-------3---------------3-----------3-------3----------------------------|
G-|-----0---------------0---------------0---0------------------------------|
D-|---0--------2~-----0--------2~---------0------2~------------------------|
A-|-2----------2~---2----------2~----------------2~------------------------|
E-|------------0~--------------0~----------------0~------------------------|
    verse          
e-|---------2---------------2----0------------0-----------------3-----3-------3--|
B-|-------3---------------3--------3---3----3---3---3---3---3-----3-----3---3----|
G-|-----0---------------0------2-----2----2-------2---2---2---5-----5-----5------|
D-|---0--------2~-----0----------------------------------------------------------|
A-|-2----------2~---2------------------------------------------------------------|
E-|------------0~----------------------------------------------------------------|


e-|---------2------2------------------------2----0------------0------------------3-----3-------3--|
B-|-------3----------3-------3------------3--------3---3----3---3---3---3---3------3-----3--3-----|
G-|-----0--------------0---0------------0------2-----2----2-------2---2---2----5-----5-----5------|
D-|---0--------2~--------0------2~----0-----------------------------------------------------------|
A-|-2----------2~---------------2~--2-------------------------------------------------------------|
E-|------------0~---------------0~----------------------------------------------------------------|
-
    Pre chorus (distorted)
                "easy come,.."                     "easy go.."
e-|------------------------------------------------------------------------------|
B-|------2-2--2-2----------2-------5-5---5-------------3-------7-7---7-----------|
G-|------2-2--2-2----------2-------5-5---5-------------2-------7-7---7-----------|
D-|------2-2--2-2----------2-------5-5---5-------------4-------7-7---7-----------|
A-|--0-0-----0-----0-0-0-0---0-0h3-----3---3-3-2-2-2-2---2-2s5-----5---5-5-------|
E-|------------------------------------------------------------------------------|
     . .     .     . . . .   .         .   . . . . . .   .         .   . .
    
e-|---------------------------------------------15-14--------------------------|
B-|----------5-----5-5---5-------------------15-------15~----------------------|
G-|----------5-----5-5---5-----7~~---------------------------------------------|
D-|----------5-----5-5---5-----7~~---------------------------------------------|
A-|--3-3-3-3---3-3-----3---3-3-5~~---------------------------------------------|
E-|----------------------------------------------------------------------------|
     . . . .   . .     .   . . 
   
    a little bit mess up on this part, but that's how i play it
     
    Chorus      
    "I would do anything for you.."         "anything for you.."
e-|------------------------------------------------------------------------|
B-|------------------------------------------------------------------------|
G-|------------------------------------4-4-4-4-4-4-4-4-4-2-2-2-4-4-4-4-4---|
D-|--5-5-5-5-5-5-5-5-5-5-5-5-5-2-2-2-2-4-4-4-4-4-4-4-4-4-2-2-2-4-4-4-4-4---|
A-|--5-5-5-5-5-5-5-5-5-5-5-5-5-2-2-2-2-2-2-2-2-2-2-2-2-2-0-0-0-2-2-2-2-2---|
E-|--3-3-3-3-3-2-2-2-2-2-2-2-2-0-0-0-0-------------------------------------|

    "If i only had you by myside"
e-|------------------------------------------------------------------------|
B-|------------------------------------------------------------------------|
G-|---5-5-5-5-5-5-5-5-5-5-5-5-5--------------------------------------------|
D-|---5-5-5-5-5-5-5-5-5-5-5-5-5--------------------------------------------|
A-|---3-3-3-3-3-3-3-3-3-3-3-3-3--------------------------------------------|
E-|------------------------------------------------------------------------|
   do chorus twice

   i didn't tabbed the guitar 2(clean) on chorus, but it's enough for you to play

enter preverse
verse
prechorus
chorus 

   Then solo      :

   for the backup guitar in solo just play the chorus part twice
   "for you...."
e-|----------------------------------------------------------17-16---------|
B-|-----8-10-10b12-12r10~----8-10-10b12r10-8---8-10-8---8----------17------|
G-|---9--------------------9-----------------9--------9--------------------|
D-|-------------------------------------------------------------------12~--|
A-|------------------------------------------------------------------------|
E-|------------------------------------------------------------------------|

e-|------------------------------------------------15-14-------------------|
B-|---------------------------------------------15-------15~---------------|
G-|---7p0-5p0-4p0-5p0-0h4h5p4s2h4h5~---------14----------------------------|
D-|------------------------------------------------------------------------|
A-|------------------------------------------------------------------------|
E-|------------------------------------------------------------------------|

e-|-------7-10-8---7-10-7s5------------------------------------------------|
B-|--8-10--------8----------8p7-3~-----------------------------------------|
G-|------------------------------------------------------------------------|
D-|------------------------------------------------------------------------|
A-|------------------------------------------------------------------------|
E-|------------------------------------------------------------------------|

e-|------15-17-15----15-17-19-17-15----15----------15-17-19s22b24~---------|
B-|--/19----------19----------------19----19-17-19-------------------------|
G-|------------------------------------------------------------------------|
D-|------------------------------------------------------------------------|
A-|------------------------------------------------------------------------|
E-|------------------------------------------------------------------------|

e-|--15-12--------------12-15p12-17p14--------------14p0-15p0-17p0-14------------|
B-|-------13----------13--------------15----------15-----------------15----------|
G-|---------12------12------------------14------14---------------------14------14|
D-|-----------14--14----------------------16--16-------------------------16--16--|
A-|-------------15--------------------------17-----------------------------17----|
E-|------------------------------------------------------------------------------|

-14-19-15--------------14-17-14-20----------|
15--------17----------17------------15~-----|
-----------16------16-----------------------|
-------------17--17-------------------------|
---------------19---------------------------|
--------------------------------------------|
    ok, here's the fun part with plenty of sweep picking, there are some mistakes
    but that sounds close to me

e-|--------14-15-17---------------------------------------------------|
B-|--15-17----------15~-----------------------------------------------|
G-|-------------------------------------------------------------------|
D-|-------------------------------------------------------------------|
A-|-------------------------------------------------------------------|
E-|-------------------------------------------------------------------|

pre chorus      
e-|------------------------------------------------------------------|
B-|-----------2-------2-2---2-------------3-------3-3---3------------|
G-|-----------2-------2-2---2-------------2-------2-2---2------------|
D-|-----------2-------2-2---2-------------4-------4-4---4------------|
A-|---0-0-0-0---0-0-0-----0---0-0-2-2-2-2---2-2-2-----2---2-2--------|
E-|------------------------------------------------------------------|
      . . . .   . . .       .   . . . . .   . . .     .   . .
e-|------------------------------------------|
B-|----------5-----5-5---5-------------------|
G-|----------5-----5-5---5-----7~~-----------|
D-|----------5-----5-5---5-----7~~-----------|
A-|--3-3-3-3---3-3-----3---3-3-5~~-----------|
E-|------------------------------------------|
     . . . .   . .     .   . .

then chorus 4 times
end part

e-|---------2---2~~--|
B-|-------3-----3~~--|
G-|-----0-------0~~--|
D-|---0---------0~~--|
A-|-2-----------2~~--|
E-|-------------0~~--|

This is my first tab on the site, and its harder to tab than play it normally  
so, please rate! 
            
Submit corrections

comments powered by Disqus
↑ Back to top | Mr. Big Tabs for Anything For You. Lyrics for acoustic guitar and electric guitar. Tablatures and chords are parodies/interpretations of the original songs. You may use it for private study, scholarship, research or language learning purposes only