>
 >
Addicted To That Rush Intro

Addicted To That Rush Intro Guitar Tabs

Mr. Big - Addicted To That Rush Intro chords, tabs, tablatures, lyrics

Guitar lessons | Add/correct | Request | Top 50 tabs Artists:  A B C D E F G H I J K L M N O P Q R S T U V W X Y Z 0-9

Addicted To That Rush Intro Guitar Tabs – Mr. Big

CD, Sheet music, Poster

Do you like Addicted To That Rush Intro? Share with your friends now
Tabs
       Mr. Big - Addicted to that Rush Intro                             

   
                                                           
   Pick Scratch                                            
                                              |---3---|    
   S            S S S  E.    S   S  S  S  S   E   E   E    
----------------------------------------------------------|
----------------------------------------------------------|
----------------------------------------------------------|
----------------------------------------------------------|
----------------------------------------------------------|
--12-----------10-7-5S-0S---12S-10S-7S-5S-0S-12S--7S--0S--|


  E    Q.      E  E   E   E     E   E  E   E  E  E   E  E   
-----------------------------|-----------------------------|
-----------------------------|-----------------------------|
-----------------------------|--2p--0---------0---------0--|
-----------------------------|---------4S--5-----4S--5-----|
------------------0h--3p--0--|-----------------------------|
--7S--15S------3-------------|-----------------------------|


                                                    PH         
  E   E  E  E   E  E   E   E     E   E  E   E  E    E   E  E   
------------------------------|-------------------------------|
------------------------------|-------------------------------|
---------0--------------------|--2p--0---------0-----------0--|
--4S--5-----4S--5-------------|---------4S--5-----<>4--/5-----|
-------------------0h--3p--0--|-------------------------------|
------------------------------|-------------------------------|


    PH          PH                                               
    E   E  E    E   E  E   E   E     E   E  E   E  E  E   E  E   
----------------------------------|----------------0------------|
----------------------------------|-------------------3p--0-----|
-----------0----------------------|--2p--0-------------------5--|
--<>4--/5-----<>4--/5-------------|---------4S--5---------------|
-----------------------0h--3p--0--|-----------------------------|
----------------------------------|-----------------------------|


                                                    A.H.     
  E  E   E  E   E  E   E  E     E   E  E   E  E  E  E    E   
--5--------------------------|-------------------0----------|
-----------------------------|------------------------------|
-------------------5p--0-----|----------------------5p---0--|
-----4p--0----------------6--|--7p--0--5p--0--4-------------|
------------6h--7------------|------------------------------|
-----------------------------|------------------------------|


  A.H.    A.H.                                                              
                               T      T              T      T               
                               |---3--|   |---3---|  |---3--|   |---3---|   
  E    E  E    E  H            E   E  E   E   E   E  E   E  E   E   E   E   
----------------------------|----------------------------------------------|
----------------------------|----------------------------------------------|
--7p---0--5p---0------------|--8p--5--7p--5p--2h--5--8p--5--7p--5p--2h--5--|
------------------7~--------|----------------------------------------------|
----------------------------|----------------------------------------------|
----------------------------|----------------------------------------------|


  T      T              T      T               
  |---3--|   |---3---|  |---3--|   |---3---|   
  E   E  E   E   E   E  E   E  E   E   E   E   
----------------------------------------------|
----------------------------------------------|
--8p--5--7p--5p--2h--5--8p--5--7p--5p--2h--5--|
----------------------------------------------|
----------------------------------------------|
----------------------------------------------|


  T      T              T      T               
  |---3--|   |---3---|  |---3--|   |---3---|   
  E   E  E   E   E   E  E   E  E   E   E   E   
----------------------------------------------|
--8p--5--7p--5p--3h--5--8p--5--7p--5p--3h--5--|
----------------------------------------------|
----------------------------------------------|
----------------------------------------------|
----------------------------------------------|


  T      T              T                 
  |---3--|   |---3---|         |--3--|    
  E   E  E   E   E   E  Q      Q     E    
-----------------------------------------|
--8p--5--7p--5p--3h--5--8S----15---------|
------------------------------------12h--|
-----------------------------------------|
-----------------------------------------|
-----------------------------------------|


   |----3---|   |----3----|    |----3----|    |----3----|   
   E    E   E   E    E    E    E    E    E    E    E    E   
-----------------------------------------------------------|
-----------------------------------------------------------|
--14p--12p--9----------------------------------------------|
---------------13p--12p--10h--12p--10h--12h--13p--12p--10--|
-----------------------------------------------------------|
-----------------------------------------------------------|


                T                              T                 
   |----3---|   |------3-----|   |----3----|   |------3------|   
   E   E    E   E    E   S   S   E    E    E   E    E    S   S   
----------------------------------------------------------------|
----------------------------------------------------------------|
--12p--9h--12--14p--12p--9S-11h-14p--12h--14--17p--14p--12S-14h-|
----------------------------------------------------------------|
----------------------------------------------------------------|
----------------------------------------------------------------|


                 T             T                           
   |----3----|   |----3----|   |----3---|    |----3----|   
   E    E    E   E    E    E   E    E   E    E    E    E   
----------------------------------------------------------|
----------------------------------------------------------|
--17p--14h--17--20p--17p--14--20p--14--19p--17p--14h--17--|
----------------------------------------------------------|
----------------------------------------------------------|
----------------------------------------------------------|




Duration Legend
---------------
W - whole
H - half
Q - quarter
E - 8th
S - 16th
T - 32nd
X - 64th
. - note dotted
|-n-|  - n-tuplets


Tablature Legend
----------------
L - tied note
x - dead note
g - grace note
(n) - ghost note
> - accentuded note
NH - natural harmonic
AH - artificial harmonic
TH - tapped harmonic
SH - semi harmonic
PH - pitch harmonic
h - hammer on
p - pull off
b - bend
br - bendRelease
pb - preBend
pbr - preBendRelease
brb - bendReleaseBend
\n/ - tremolo bar dip
\n - tremolo bar dive
-/n - tremolo bar Release up
/n\ - tremolo bar inverted dip
/n - tremolo bar return
-\n - tremolo bar Release down
S - shift slide
s - legato slide
/ -  slide into from below or out of upwards
\ -  slide into from above or out of downwards
~ - vibrato
W - wide vibrato
tr - trill
TP - tremolo picking
T - tapping
S - slap
P - pop
< - fade in
^ - brush up
v - brush down





Comments


Popular Mr. Big tabs & chords
Next Time Around 2 Bass Tabs
Superfantastic Chords
The Whole Worlds Gonna Know Chords
Wild World 2 Chords
Nothing But Love Tabs
Nothing But Love 2 Tabs
The Whole Worlds Gonna Know Tabs
To Be With You 4 Tabs
Green Tinted Sixties Mind 2 Ukulele
To Be With You Ukulele


Song lyrics



↑ Back to top | Tablatures and chords are parodies/interpretations of the original songs. You may use it for private study, scholarship, research or language learning purposes only
© 2014 AZChords.com Contact us | Privacy policy | DMCA | Add/correct tabs | Request tabs | Top 50 tabs