» » »

Twinkle Twinkle Little Star Tabs (ver.1)

Artists:  A B C D E F G H I J K L M N O P Q R S T U V W X Y Z # 

Twinkle Twinkle Little Star Tabs (ver.1)

Mozart
Rating:
0/5 (0 votes)

Hard to play? Try these video lessons and learn fast.
                |------------------------------------------------------------------------------------
|------------------------------------------------------------------------------------
|-------------------2---2------------------------------------------------------------
|-----------5---5-----------5-----3---3----2---2-------------------------------------
|---3--3----------------------------------------------5----5-----3-------------------
|------------------------------------------------------------------------------------

|------------------------------------------------------------------------------------
|------------------------------------------------------------------------------------
|------------------------------------------------------------------------------------
|----5--5---3---3----2----2----------5----5----3----3----2----2----------------------
|---------------------------------5-------------------------------------5------------
|------------------------------------------------------------------------------------

|------------------------------------------------------------------------------------
|------------------------------------------------------------------------------------
|-------------------2---2------------------------------------------------------------
|-----------5---5-----------5-----3---3----2---2-------------------------------------
|---3--3----------------------------------------------5----5-----3-------------------
|------------------------------------------------------------------------------------
            
Hard to play? Try these video lessons and learn fast. | Correct




comments powered by Disqus
↑ Back to top | Tablatures and chords are parodies/interpretations of the original songs. You may use it for private study, scholarship, research or language learning purposes only