>
 >
Requiem Confutatis

Requiem Confutatis Guitar Tabs

Mozart - Requiem Confutatis chords, tabs, tablatures, lyrics

Guitar lessons | Add/correct | Request | Top 50 tabs Artists:  A B C D E F G H I J K L M N O P Q R S T U V W X Y Z 0-9

Requiem Confutatis Guitar Tabs – Mozart

CD, Sheet music, Poster

Do you like Requiem Confutatis? Share with your friends now
Tabs
1st Phrase
E -----------------------------------------------------------------------------------------------------------
B -----------------------------------------------------------------------------------------------------------
G -----------------------------------------------------------------------------------------------------------
D ------------------------------------------------------------0-0-0-0----------------0-0-0-0-----------
A 0-2-3-3-3-3-2-0-0-0-0-2-3-3-3-3-2-0-0-0-2-3-----------3-2-2-2-2-3-----------3-2-2-2
E -----------------------------------------------------------------------------------------------------------

E -----------------------------------------------------------------------------------------------------------
B -----------------------------------------------------------------------------------------------------------
G -----------------------------------------------------------------------------------------------------------
D ---0-2-2-2-2-0------------0-2-2-2-2-0--------0-2-3-3-3-3-2-0-0-0-0-2-3-3-3-3-2-0-0-0
A -3----------------3-3-3-3------------------3-3-3-----------------------------------------------------
E -----------------------------------------------------------------------------------------------------------

E -----------------------------------------------------
B ----0-0-0-0----------------1-1-1-1-----------5
G --1-----------1-----------2-----------2---------4
D 2---------------2-2-2-2----------------2-2-2-2
A -----------------------------------------------------
E -----------------------------------------------------

Part During Singing
E -----------------------------------------------------------------------------------------
B -----------------1-0---------------------------2----------1-0------------------------
G ---------------0-----2-0-------------0------0--0------0-----2-0--------------0---
D -2-2-1-0--2------------3-2-0-2-3------2-----2--2------------3-2-0-2-3-----
A -----------3-------------------------------3---------3--------------------------------
E ------------------------------------------3-------------------------------------------3

Variation on First Part
E -----------------------------------------------------------------------------
B -----------------------------------------------------------------------------
G -----------------------------------------------------------------------------
D --0-2-2-2-1-0-----------------------------------0-2-4-4-4-3-2-0-0-
A 3----------------3-3-3---0-2-2-2-1-0----------------------------------
E --------------------------3-----------------3-3-3--------------------------

E -------------------------------------------------------------------------------------------------------------
B -------------------------------------------------------------------------------------------------------------
G ----------------------------------1-1-1-0-------------------------------------------------------0-0-0--
D 0---------------------------2-4-----------4-2-2-2-------------------0-0-0--0-2-2-2-2-3---------4
A --0-2-4-4-4-3-2-0-0-0--------------------------0-2-3-3-3-2-3--------3--------------------------
E -------------------------------------------------------------------------------------------------------------

E -----------------------------------------------------------------------------------------------------------
B ------0-0-0------0-0-0---0-1-1-1-------------------------------------------------------------------5
G 0-2---------1-2---------2-----------0-2-3-3-3---0-2-2-2-2-0-----------0-2-2-2-2-0---------4
D -----------------------------------------------------4-----------------4-4-4-3----------------3-3-3-3
A ------------------------------------------------------------------------------------------------------------
E ------------------------------------------------------------------------------------------------------------

Second Soprano Verse
E -------------------------------------------------------------------------------------------------------------
B ------------------------------------------------------------------3-1--------------------------------------
G -----------------2-0-----------------------------0-----------2-----3-2-0---------0-2------------------
D 2-0----------2------3-2-0--------0-2-0-2-----3-2-0-3---------------3-2-31------0-3-2-0-2-3
A -----3-2-0-3---------------3-2-3-----------0-----------------------------------------0----------------
E -------------------------------------------------------------------------------------------------------------

E ----------------------------------------------------------------------------------------------------------
B ----------------------------------------------------------------------------------------------------------
G 0--0--0----------------------------------------------------------0-------------------------------------
D --3--------2-0---0-2-3------3-3---0---------0-2-0-----------4-3-2-0-2-3-2-3-0--0-2-0-2-
A ----------3------3--------3-0------2---3-2-3----------3-2-0--------------------------3----------0
E ------3---------------------------------------------------------------------------------------------------

E ----------------1-1-1-5-5-5-8-8-8-5-5-5-2-2-2-------------------------------------------------
B --------1-1-1------------------------------------------1-1-1-2-2-2---------------------------------
G 2-2-2------------------------------------------------------------------3-3-3-0-0-0-----------------
D ----------------------------------------------------------------------------------------------------------
A ------------------------------------------------------------------------------------------3-3-3-2-2-2-
E ----------------------------------------------------------------------------------------------------------

E ---------------------------------------------------3-3-3-7-7-7-4-4-4-1-1-1------------------------
B -----------------------------------0-0-0-4-4-4---------------------------------0-0-0-1-1-1--------
G ---------------------------0-0-0-----------------------------------------------------------------2-2-2-
D -----------------------------------------------------------------------------------------------------------
A 2-2-2-1-1-1-1-1-1------------------------------------------------------------------------------------
E -------------------------3---------------------------------------------------------------------------------

E ---------------------------------------------------------------------------3-3-3-6-6-6-3-3-3-0-0-0
B -------------------------------------------------------------------3-3-3---------------------------------
G --------------------------------------------------0-0-0-3-3-3------------------------------------------
D 4-4-4----------------------------------4-4-4-----------------------------------------------------------
A ---------3-3-3-1-1-1-1-1-1-3-3-3-------------------------------------------------------------------
E -----------------------------------------------------------------------------------------------------------

E --------------------------------1-1-1-5-5-5-2-2-2-----------------------------------------------------
B 0-0-0-0-0-0-----------------------------------------4-4-4---------------------------------------------
G ----------------------------------------------------------------2-2-2-2-2-2-----------------1-1-1-----
D ----------------3-3-3-4-4-4-------------------------------------------------2-2-2-3-3-3--------3-3
A -------------------------------------------------------------------------------------------------------------
E -------------------------------------------------------------------------------------------------------------

E ----------------------------------------------------------------
B ----------------------------------------------------------------
G --0-0-0---------0-0-0---------------------------------------
D 3---------2-2-2--------3-3-3--------3-3-3----------3-----
A ----------------------------------3-3-3--------3-3-3-------4
E -----------------------------------------------------------------





Comments


Popular Mozart tabs & chords
Eine Kleine Nachmusik Bass Tabs
Allegro From Divertimento #13 Tabs
Eine Kleine Nachtmusik Tabs
Greensleeves Tabs
Greensleves Tabs
Greensleves 1 Tabs
Petite Piece Tabs
Sonata #3 Tabs
St. Matthew Passion Tabs
Turkish March Tabs


Song lyrics



↑ Back to top | Tablatures and chords are parodies/interpretations of the original songs. You may use it for private study, scholarship, research or language learning purposes only
© 2014 AZChords.com Contact us | Privacy policy | DMCA | Add/correct tabs | Request tabs | Top 50 tabs