» » »

Mozart, Greensleeves Tabs (ver.1)

Artists:  A B C D E F G H I J K L M N O P Q R S T U V W X Y Z # 

Greensleeves Tabs (ver.1)

Mozart Tabs
 Rating:
4/5 (4 votes)
Greensleeves lessons Tabs too difficult? Try these video lessons and learn fast
1
                By Mozart
AKA: FingerpickinFoo


3/4 timing. Standard EADGBE Tuning.
Starts on an anacrusis (up-beat)

“Verse”
---|--------|-0---1--0---|---------|-----------|--------|-----------|
-1-|-1---3--|------------|-3---0---|----------0|-1------|-----------|
-2-|-2---0--|-0----------|-0-------|-0----2----|-----2--|-2--1---2--|
-2-|--------|------------|---------|-0---------|--------|-2---------|
---|-0---2--|-3----------|---------|-----------|-0------|-0---------|
---|--------|------------|-3-------|-3---------|--------|-----------|
                                                                              

|---------|----------|--------|-0---1---0--|---------|-----------|
|-0-------|----------|-1---3--|------------|-3----0--|--------0--|
|-1----1--|------2---|-2---0--|-0----------|-0-------|-0----2----|
|-2-------|-2--------|-2---0--|------------|---------|-0---------|
|---------|----------|-0------|-3----------|---------|-----------|
|---------|-0--------|--------|------------|-3-------|-3---------|
                                                                              
	*
|-------------|-----------|------------| 	
|-1-----------|-----------|------------|	
|-----4----2--|-1------1--|---2--------|    Repeat 1x	 
|-3-----------|-2---4-----|---2--------|	
|-0-----------|-----------|---0--------| 	 
|-------------|-0---------|------------|	 

*Carry  out last chord for two measures. Minus one beat for the anacrusis.
(5 beats NOT 6)  

 “Chorus”
|--3-------|-3----2--0--|---------|-----------|-----------|-----------|
|----------|------------|-3--0----|--0---1----|-----------|-0---------|
|----------|------------|-------0-|-2--------2|-2---1---2-|-1---1-----|
|----------|---------3--|---------|-----------|-----------|-2-------2-|
|--3-------|-3----------|---------|------0----|-0---------|-----------|
|----------|------------|-3-----3-|-----------|-----------|-0-------0-|


|--3--|-3--2-0--|----------|-----------|--------| 
|-----|---------|-3--0-----|--0--1--0--|--------| 
|-----|---------|-------0--|-2-------2-|-1-----1| 
|-----|---------|----------|-----------|-----4--| 
|--3--|-3-----3-|----------|-----------|--------| 
|-----|---------|-3-----3--|-----1-----|-0------| 
       
                                                                       
*Transition chord to verse again: or  Ending:
|----   			|--------|----
|----  			|--------|-1-- Last chord sound best
|-2--  *carry over to  		|-2------|-2-- if strummed.
|-2--   anacrusis 		|-2----2-|-2— (Just my opinion, do it
|-0--   			|-0--3---|-0—  however you like.)
|----   			|--------|----

Note: I had two tabs for this song for this song and found that both had a few
errors in either the “verse” or the “Chorus” and some strange accompaniment that
just didn’t seem to flow with it. (These are not really a distinct “verse” 
or “chorus” I’m just calling them that for explanation purposes). Anyway, I did my 
best to re-tab it and remove the accompaniment and fix the errors. I’ve listened to 
3 versions of the song and played through a few times to make sure everything 
sounds right. (Every version changes it up a little. You can play either the verse, 
or the chorus, or both multiple times and switch back and forth.) 


OK. Here’s the order: (This seems to be the most common.)

INTRO (sorry not finished yet. Coming soon)
VERSE (2x)
CHORUS
TRANSITION CHORD
VERSE (1x or 2x)
CHORUS
ENDING
            
Submit corrections

comments powered by Disqus
↑ Back to top | Mozart Tabs for Greensleeves. Lyrics for acoustic guitar and electric guitar. 1 Tablatures and chords are parodies/interpretations of the original songs. You may use it for private study, scholarship, research or language learning purposes only