» » »

Ben 1 Bass tabs (ver.1)

Artists:  A B C D E F G H I J K L M N O P Q R S T U V W X Y Z # 

Ben 1 Bass tabs (ver.1)

Moxy
Rating:
4/5 (4 votes)

Hard to play? Try these video lessons and learn fast.
                "(0)
<>
<>

Intro:
---------------------------------------------------|
---------------------------------------------------|
--6--6--6--6666666---66------2-44------------------|
------------------------2-44------0-2--------------|

Part 1: x7
---------------------------------------------------|
---------------------------------------------------|
---------------------66------2-44------------------|
------------------------2-44------0-2--------------|

Part 2:
----------------------------------------------------|
----------------------------------------------------|
----------------------------------------------------|
---777777777777777722222222222222225555555555555555-|

---------------------------------------------------|
---------------------------------------------------|
------------6--------------------------------------|
54545454-22----------------------------------------|

Part 3: x2

---------------------------------------------------|
---------------------------------------------------|
---------------------66------2-44------------------|
------------------------2-44------0-2--------------|

Ending:

---------------------------------------------------|
---------------------------------------------------|
-66------432---------------------------------------|
----2-44-----4320----------------------------------|


<>
"            
Hard to play? Try these video lessons and learn fast. | Correct




comments powered by Disqus
↑ Back to top | Tablatures and chords are parodies/interpretations of the original songs. You may use it for private study, scholarship, research or language learning purposes only