» » »

Moving Units, X And Y Bass tabs (ver.1)

Artists:  A B C D E F G H I J K L M N O P Q R S T U V W X Y Z # 

X And Y Bass tabs (ver.1)

Moving Units Tabs
Rating:
0/5 (0 votes)
X And Y lessons Tabs too difficult? Try these video lessons and learn fast
                Album:Moving Units

Intro
G|------10-12---------10-12---------10-12-----------------|
D|------------------------------------------------14------|
A|--10-------------10------------10---------12-12----12---|
E|--------------------------------------------------------|

G|------10-12---------10-12---------10-12-----15----14-|
D|-----------------------------------------------------|
A|--10-------------10------------10--------13----12----|
E|-----------------------------------------------------|

Chorus
G|--------------------------12-12----12-12----12-12-----12----|
D|---------13-------12----------------------------------------|
A|-10-10-10---9-9-9------10-------10-------10--------10---10--|
E|------------------------------------------------------------|


G|-------------------------7-7---7-7---7-7---7------|
D|---------13-------12------------------------------|
A|-10-10-10---9-9-9------5-----5-----5-----5---5----|
E|--------------------------------------------------|


After Chorus
G|------------------------------|
D|------------------------------|
A|------------------------------|
E|-1-1-1-1-3/15----1-1-1-1-3/15-|
            

comments powered by Disqus
↑ Back to top | Moving Units Bass for X And Y. Lyrics for acoustic guitar and electric guitar. Tablatures and chords are parodies/interpretations of the original songs. You may use it for private study, scholarship, research or language learning purposes only