» » »

Moving Units, Unpersuaded Bass tabs (ver.1)

Artists:  A B C D E F G H I J K L M N O P Q R S T U V W X Y Z # 

Unpersuaded Bass tabs (ver.1)

Moving Units Tabs
Rating:
0/5 (0 votes)
Unpersuaded lessons Tabs too difficult? Try these video lessons and learn fast
                Album:Dangerous Dreams

Verse
G|---------------------------------|
D|----9-7---9-7------9-7----9-7----|
A|--------------9---------------9--|
E|--7-------------7----------------|

Chorus
G|------9-----9-----9-----9-------------------------|
D|------------------------------9-----9-----9-----9-|
A|--7-7---7-7---7-7---7-7---------------------------|
E|--------------------------7-7---7-7---7-7---7-7---|

G|------9\----9\----9\----9\-------------------------|
D|------------------------------9\----9\----9\----9\-|
A|--7-7---7-7---7-7---7-7----------------------------|
E|--------------------------7-7---7-7---7-7---7-7----|
            

comments powered by Disqus
↑ Back to top | Moving Units Bass for Unpersuaded. Lyrics for acoustic guitar and electric guitar. Tablatures and chords are parodies/interpretations of the original songs. You may use it for private study, scholarship, research or language learning purposes only