» » »

Scars Bass tabs (ver.1)

Artists:  A B C D E F G H I J K L M N O P Q R S T U V W X Y Z # 

Scars Bass tabs (ver.1)

Moving Units
Rating:
0/5 (0 votes)

Hard to play? Try these video lessons and learn fast.
                Album:Dangerous Dreams

Intro
G|-----------------------------------------|
D|-----------------------------------------|
A|-----------------------------------------|
E|--7-7-77-7-7-77-7-7-77-7-7-77-7-7-7\0----|

Verse
G|------------------------|
D|------------------------|
A|------------------------|
E|-77-7-7777-5-33-3-3333--|

Chorus
G|-----------------------------------------------|
D|-----------------------------------------------|
A|-----------------------------------------------|
E|--10-10-10-10-10-9-9-9-9-9-9-7-7-7-7-7-7-7-7\0-|

Towards The End

G|----------------------------------------------|
D|----------------------------------------------|
A|----------------------------------------------|
E|--10-10-10-10-10-9-9-9-9-9-9-7-7-7-7-7-7-7-7 -|


G|--------------------------------------------|
D|--------------------------------------------|
A|--------------------------------------------|
E|--5-55-5555-3-33-3333-5-7-7-7777-7-7-7777---|


G|--------------------------------------------------------|
D|--------------------------------------------------------|
A|--------------------------------------------------------|
E|--10-10-10-10-10-9-9-9-9-9-9-15-15-15-15-17-77-7-7-7-7--|
            
Hard to play? Try these video lessons and learn fast. | Correct




comments powered by Disqus
↑ Back to top | Tablatures and chords are parodies/interpretations of the original songs. You may use it for private study, scholarship, research or language learning purposes only