» » »

I Am Bass tabs (ver.1)

Artists:  A B C D E F G H I J K L M N O P Q R S T U V W X Y Z # 

I Am Bass tabs (ver.1)

Moving Units
Rating:
0/5 (0 votes)

Hard to play? Try these video lessons and learn fast.
                Album:Moving Units

Verse
G|-----11----11----9-----9------7-----7------7-|
D|---------------------------------------------|
A|--9-----9-----7-----7-----5------5-----5-----|
E|---------------------------------------------|

G|-----11-----11------14------14------16-------|
D|---------------------------------------------|
A|--9------9------12------12------14------14---|
E|---------------------------------------------|

Chorus
G|--------11--------11--------11------7-----7--|
D|---------------------------------------------|
A|--9--9------9--9------9--9-------5-----5-----|
E|---------------------------------------------|

Hope You enjoy
            
Hard to play? Try these video lessons and learn fast. | Correct




comments powered by Disqus
↑ Back to top | Tablatures and chords are parodies/interpretations of the original songs. You may use it for private study, scholarship, research or language learning purposes only