» » »

Moving Units, Dark Walls Bass tabs (ver.1)

Artists:  A B C D E F G H I J K L M N O P Q R S T U V W X Y Z # 

Dark Walls Bass tabs (ver.1)

Moving Units Tabs
 Rating:
4/5 (5 votes)
Dark Walls lessons Tabs too difficult? Try these video lessons and learn fast
1
                This is my first tab and I know that there are a lot of wrong notes, so help is
greatly appreciated

Note: All "11" are 11's, not 1's

Intro: Guitar only


00:13
G|----------|
D|-------7~-|   x2
A|--7~------|
E|----------|

00:25
G|-99----999-11-11--------------------------------|
D|---11------------9~-9h11p9999-77----7~--7h9p7---|   x6
A|---------------------------------99-------------|
E|------------------------------------------------|

01:05
G|-----------------------------------|
D|-----------------------------------|
A|-----------------------------------|
E|0000000000000000--5555555555555555-|

G|-----------------------------------|
D|-----------------------------------|
A|---------------------7------7-7999-|
E|0000000000000000--555--5---5-5-----|

01:18
G|---4-4----4-4----9~----9-9-111111----|
D|2-2----2~--2---77--7~-7-7------------|   X2
A|-------------------------------------|
E|-------------------------------------|

01:31
G|-------------------------------------------------|
D|-------------------------------------------------|
A|--7~7~7~-----7s2~2~2~-----2s7~7~7~-----7s2~2~2~--|
E|-------------------------------------------------|

01:44
G|-99----999-11-11--------------------------------|
D|---11------------9~-9h11p9999-77----7~--7h9p7---|   x6
A|---------------------------------99-------------|
E|------------------------------------------------|

02:23
G|-----------------------------------|
D|-----------------------------------|
A|-----------------------------------|
E|0000000000000000--5555555555555555-|

G|-----------------------------------|
D|-----------------------------------|
A|---------------------7------7-7999-|
E|0000000000000000--555--5---5-5-----|

02:36
G|---4-4----4-4----9~----9-9-111111----|
D|2-2----2~--2---77--7~-7-7------------|   X2
A|-------------------------------------|
E|-------------------------------------|

02:49
G|-------------------------------------------------|
D|-------------------------------------------------|
A|--7~7~7~-----7s2~2~2~-----2s7~7~7~-----7s2~2~2~--|
E|-------------------------------------------------|

03:02
G|-99----999-11-11--------------------------------|
D|---11------------9~-9h11p9999-77----7~--7h9p7---|   x6
A|---------------------------------99-------------|
E|------------------------------------------------|

03:42
G|---4-4----4-4----9~----9-9-111111----|
D|2-2----2~--2---77--7~-7-7------------|   X2
A|-------------------------------------|
E|-------------------------------------|

03:55
E|-------|
A|--7~~~-|
D|-------|
G|-------|
            
Submit corrections

comments powered by Disqus
↑ Back to top | Moving Units Bass for Dark Walls. Lyrics for acoustic guitar and electric guitar. 1 Tablatures and chords are parodies/interpretations of the original songs. You may use it for private study, scholarship, research or language learning purposes only