» » »

Moving Units, Bricks And Mortar Bass tabs (ver.1)

Artists:  A B C D E F G H I J K L M N O P Q R S T U V W X Y Z # 

Bricks And Mortar Bass tabs (ver.1)

Moving Units Tabs
Rating:
0/5 (0 votes)
Hard to play? Try these video lessons and learn fast.
                Album:Dangerous Dreams

Verse
G|-------------------------------|
D|----6--4--3--4----6--4---------|
A|-----6-------------6----222222-|
E|4-4------1--2--4-4-------------|

G|------------------------------|
D|----6--4--3--4----6--4-3/9-9--|
A|-----6-------------6----------|
E|4-4------1--2--4-4------------|

Chorus
G|-------------------------|
D|----------4-6--------4-6-|	
A|------4-6--------4-6-----|
E|---4----------4----------|
            

comments powered by Disqus
↑ Back to top | Moving Units Bass for Bricks And Mortar. Lyrics for acoustic guitar and electric guitar. Tablatures and chords are parodies/interpretations of the original songs. You may use it for private study, scholarship, research or language learning purposes only