» » »

Moving Units, Birds Of Prey Tabs (ver.1)

Artists:  A B C D E F G H I J K L M N O P Q R S T U V W X Y Z # 

Birds Of Prey Tabs (ver.1)

Moving Units Tabs
 Rating:
4/5 (5 votes)
Birds Of Prey lessons Tabs too difficult? Try these video lessons and learn fast
                Intro
E|----55-555-555-555-555-555--|
B|----55-555-555-555-555-555--|
G|----55-555-555-555-555-555--|
D|----------------------------|
A|----------------------------|
E|----------------------------|
play a bunch of times

Chorus:(x2)
E|-----5--------5--------5--------5--------7--------7-----8--------8-----------|
B|--------5--------5--------5--------5--------7--------7-----7--------7--------|
G|--5--------5--------5--------5--------7--------7--------------7--------7-----|
D|-----------------------------------------------------------------------------|
A|-----------------------------------------------------------------------------|
E|-----------------------------------------------------------------------------|
then:(x2)
E|--5--x--555--7--5--x--5--5--7--5--x--8--8--8---|
B|--5--x--555--7--5--x--5--5--7--5--x--7--7--7---|
G|--5--x--555--7--5--x--5--5--7--5--x--7--7--7---|
D|-----------------------------------------------|
A|-----------------------------------------------|
E|-----------------------------------------------|

repeat intro

repeat chorus

breakdown:
E|--5--5--5--77--5--5--5--77---|
B|--5--5--5--77--5--5--5--77---|
G|--5--5--5--77--5--5--5--77---|
D|-----------------------------|
A|-----------------------------|
E|-----------------------------|

E|--1717--171717--1919191919--1717--171717--1919191919---|
B|--1717--171717--1919191919--1717--171717--1919191919---|
G|--1717--171717--1919191919--1717--171717--1919191919---|
D|-------------------------------------------------------|
A|-------------------------------------------------------|
E|-------------------------------------------------------|

its just missing a few things, but it sounds ok!, have fun!
            
Submit corrections

comments powered by Disqus
↑ Back to top | Moving Units Tabs for Birds Of Prey. Lyrics for acoustic guitar and electric guitar. Tablatures and chords are parodies/interpretations of the original songs. You may use it for private study, scholarship, research or language learning purposes only