» » »

Moving Units, Between Us And Them Bass tabs (ver.2)

Artists:  A B C D E F G H I J K L M N O P Q R S T U V W X Y Z # 

Between Us And Them Bass tabs (ver.2)

Moving Units Tabs
Rating:
0/5 (0 votes)
Between Us And Them lessons Tabs too difficult? Try these video lessons and learn fast
                Moving Units - Between Us and Them
Bafalicious Bass

Meter:4\4
Key:g minor (or Bb Major depending on the chords)

Rhythm is pretty basic with some syncopation. Every note is either
on the downbeat or upbeat, so no whacky sixteenth notes.
Downbeat=+
Off beat=o

Verse 1 - Play eight times.
Bass starts after the guitar intro and two-beat drum fill.
R|-+-o-+-o-+--o--+--o--|-+-o--+--o--+--o--+--o--|-+-o-+-o-+--o--+--o--|-+-o--+--o--+--o--+--o--|
G|------------------10-|---10-10-10-------------|---------------------|------------10-10-10-10-|
D|---------12-10-------|------------12-10-------|---------12-10----10-|---10-10-10-------------|
A|-10--10--------13----|------------------13-13-|---------------13----|------------------------|
E|---------------------|------------------------|-11--11--------------|------------------------|

Chorus - Play 3½ times.
On the fourth time, play until the end of the second measure, then Verse two starts.
R|-+-o-+-o-+-o--+-o--|-+-o--+--o--+--o-+-o--|-+--o--+--o--+--o-+--o-|-+-o-+-o-+-o--+-o--|
G|-8-8-8-8-8-10-8----|----------------------|-----------------------|-------------------|
D|----------------10-|---10-10-10-10-8---10-|---------------------8-|---8-8-8-8-10-8-10-|
A|-------------------|----------------------|-10-10-10-10-10-8-10---|-------------------|
E|-------------------|----------------------|-----------------------|-------------------|

Verse 2 - Play six times.
R|-+-o-+-o-+--o--+--o--|-+-o--+--o--+--o--+--o--|-+-o-+-o-+--o--+--o--|-+-o--+--o--+--o--+--o--|
G|------------------10-|---10-10-10-------------|---------------------|------------10-10-10-10-|
D|---------12-10-------|------------12-10-------|---------12-10----10-|---10-10-10-------------|
A|-10--10--------13----|------------------13-13-|---------------13----|------------------------|
E|---------------------|------------------------|-11--11--------------|------------------------|

Chorus - Play 3½ times.
On the fourth time, play until the end of the second measure, then Verse three starts.
R|-+-o-+-o-+-o--+-o--|-+-o--+--o--+--o-+-o--|-+--o--+--o--+--o-+--o-|-+-o-+-o-+-o--+-o--|
G|-8-8-8-8-8-10-8----|----------------------|-----------------------|-------------------|
D|----------------10-|---10-10-10-10-8---10-|---------------------8-|---8-8-8-8-10-8-10-|
A|-------------------|----------------------|-10-10-10-10-10-8-10---|-------------------|
E|-------------------|----------------------|-----------------------|-------------------|

Verse 3 (if you want to call it a verse) - Play four times.
R|-+-o-+-o-+--o--+--o--|-+-o--+--o--+--o--+--o--|-+-o-+-o-+--o--+--o--|-+-o--+--o--+--o--+--o--|
G|------------------10-|---10-10-10-------------|---------------------|------------10-10-10-10-|
D|---------12-10-------|------------12-10-------|---------12-10----10-|---10-10-10-------------|
A|-10--10--------13----|------------------13-13-|---------------13----|------------------------|
E|---------------------|------------------------|-11--11--------------|------------------------|

Ending - Play eight times.
R|-+-o-+--o--+-o-+--o--|-+-o--+--o--+--o--+--o--|
G|-0-0-12-12-0-0-12-12-|---10-12-15-17-17-17-15-|
D|---------------------|------------------------|
A|---------------------|------------------------|
E|---------------------|------------------------|
            

comments powered by Disqus
↑ Back to top | Moving Units Bass for Between Us And Them. Lyrics for acoustic guitar and electric guitar. Tablatures and chords are parodies/interpretations of the original songs. You may use it for private study, scholarship, research or language learning purposes only