» » »

Between Us And Them Tabs (ver.1)

Artists:  A B C D E F G H I J K L M N O P Q R S T U V W X Y Z # 

Between Us And Them Tabs (ver.1)

Moving Units
Rating:
2/5 (1 vote)

Hard to play? Try these video lessons and learn fast.
                ***Note to ADMIN!!,this is an updated version of a previous version***

Tablature provided by BangBangOmaYang!

 E-|-------------------------------------------------------------------|  x3
 B-|--33-0-33-0-33-0-33-0-33-0-33-0-33-0-33-0-33-0---------------------|
 G-|--33-0-33-0-33-0-33-0-33-0-33-0-33-0-33-0-33-0---------------------|
 D-|-------------------------------------------------------------------|
 A-|-------------------------------------------------------------------|
 E-|-------------------------------------------------------------------|

  "I'm understanding....and the furniture, matches the ceiling"
E-|---3-------3----15-------15--------------------------------------------|
B-|----3------3----15---------15-----3333---------------------------------|
G-|-----3-----3----15-----------15---55555b-3-----------------------------|
D-|-----------------------------------------------------------------------|
A-|-----------------------------------------------------------------------|
E-|-----------------------------------------------------------------------|

  "If it was differant then...."
E-|-----------------------------------------------------------------------|
B-|--33-33-11-11-33-33-11-11-33-33-11-11-33-33-11-11111-------------------|
G-|--33-33-22-22-33-33-00-00-33-33-22-22-33-33-00-00000-------------------|
D-|-----------------------------------------------------------------------|
A-|-----------------------------------------------------------------------|
E-|-----------------------------------------------------------------------|

**Note: Definitely two separate guitars playing for the chorus, but tabs are close**

(Chorus)¬  “ I know its difficult, so….”
E-|--3---3---------6---------------------------------------------------|  x2
B-|----1---1--1s4----3h4-3-4-------------------------3-----------------|
G-|-------------------------------7-7-5h7-5-7-3-3h5---5-3--------------|
D-|--------------------------------------------------------------------|
A-|--------------------------------------------------------------------|
E-|--------------------------------------------------------------------|

E-|--3---3---------6---------------------------------------------------------|
B-|----1---1--1s4----3h4-3-4-------------------------------------------------|
G-|--------------------------------------------------------------------------|
D-|--------------------------------------------------------------------------|
A-|--------------------------------------------------------------------------|
E-|--------------------------------------------------------------------------|


 E-|---------------------------------------------------------------------|
 B-|--33-0-33-0-33-0-33-0-33-0-33-0-33-0-33-0-33-0-----------------------|
 G-|--33-0-33-0-33-0-33-0-33-0-33-0-33-0-33-0-33-0-----------------------|
 D-|---------------------------------------------------------------------|
 A-|---------------------------------------------------------------------|
 E-|---------------------------------------------------------------------|

E-|--3---------3-----------3---------3-------------3-------3-------------|
B-|----3-----3--3---3--------3-----3--3---3----------3----3--3--3--------|
G-|------3-5------5------------3-5------5-------------3-5------5---------|
D-|----------------------------------------------------------------------|
A-|----------------------------------------------------------------------|
E-|----------------------------------------------------------------------|

E-|--3--------------------------------------------------------------------|
B-|----3---3333-----------------------------------------------------------|
G-|------3-5555-5b-3------------------------------------------------------|
D-|-----------------------------------------------------------------------|
A-|-----------------------------------------------------------------------|
E-|-----------------------------------------------------------------------|

**Repeat Chorus**

Last Solo Part

E-|-------11h13------11h13-----11h13------11h13-----11h13-----11h13-----|
B-|----12----------12--------12--------12---------12--------12----------|
G-|---------------------------------------------------------------------|
D-|---------------------------------------------------------------------|
A-|---------------------------------------------------------------------|
E-|---------------------------------------------------------------------|

E-|-----11h13------11h13-----------11h13------------11----------11h13---|
B-|--12---------12-----------10h12--------12-10-12-------10h12----------|
G-|---------------------------------------------------------------------|
D-|---------------------------------------------------------------------|
A-|---------------------------------------------------------------------|
E-|---------------------------------------------------------------------|

E-|-----------11---------11h13----------11--------11h13-----------11---------|
B-|-12-10-12------10h12--------12-10-12-----10h12--------12-10-12------------|
G-|--------------------------------------------------------------------------|
D-|--------------------------------------------------------------------------|
A-|--------------------------------------------------------------------------|
E-|--------------------------------------------------------------------------|

E-|-------11h13-------11h13---------11h13-----------11h13----------11h13----|
B-|-10h12-------10h12--------10h12-----------10h12----------10h12-----------|
G-|-------------------------------------------------------------------------|
D-|-------------------------------------------------------------------------|
A-|-------------------------------------------------------------------------|
E-|-------------------------------------------------------------------------|


E-|--------11h13-------------------------------------------------------|
B-|-10h12--------------------------------------------------------------|
G-|----------------------10h12---------10h12---------------------------|
D-|---------------10h12----------10h12---------------------------------|
A-|--------------------------------------------------------------------|
E-|--------------------------------------------------------------------|
            
Hard to play? Try these video lessons and learn fast. | Correct




comments powered by Disqus
↑ Back to top | Tablatures and chords are parodies/interpretations of the original songs. You may use it for private study, scholarship, research or language learning purposes only