» » »

(Don't Need) Religion Tabs (ver.1)

Artists:  A B C D E F G H I J K L M N O P Q R S T U V W X Y Z # 

(Don't Need) Religion Tabs (ver.1)

Motorhead
Rating:
0/5 (0 votes)

Hard to play? Try these video lessons and learn fast.
                Motörhead-"(Don't need)religion"
Tune down to Eb

A fairy easy and cool song from the iron fist album, and 
it's one of the song with the best lyrics ever.
The Bass follows Guitar 1 (approximately)

Riff A (Guitar 1)
1|--------------------------|
2|--------------------------|
3|--------------------------|
4|--------------------------|
5|-0-0-2-0-3-0-3-2-0-0-2-3--|
6|--------------------------|

Riff A (Guitar 2)
1|--------------------------|
2|--------------------------|
3|--------------------------|
4|-2-2-----5-5-----2-2---5--|
5|-0-0-----3-3-----0-0---3--|
6|--------------------------|

Riff B (Guitar 1)
1|-----------------------------------| Guitar 2 plays the same
2|-----------------------------------| except that it plays the
3|-----------------------------------| chords straight through
4|-99999999--------7777777777777777--| instead of the -79757975
5|-77777777797579755555555555555555--| bit.
6|-----------------------------------|

Fill A (Guitar 1)
1|-----------------------------------| Guitar 2 as above.
2|-----------------------------------|
3|-----------------------------------|
4|-99999999--------7777777777777-5---|
5|-77777777797579755555555555555-3---|
6|-----------------------------------|

Riff C (Guitar 1)
1|--------------------------|
2|--------------------------| 
3|--------------------------|
4|-11-1111111111119---7-----|
5|-9--9-9-9-9-9-9-7---5-----|
6|--------------------------|

Fill B (Guitar 1)
1|----------------------------|
2|----------------------------| 
3|----------------------------|
4|-11-1111111111119---7--5----|
5|-9--9-9-9-9-9-9-7---5--3----|
6|----------------------------|
            
Hard to play? Try these video lessons and learn fast. | Correct




comments powered by Disqus
↑ Back to top | Tablatures and chords are parodies/interpretations of the original songs. You may use it for private study, scholarship, research or language learning purposes only