» » »

Motionless In White, To Keep From Getting Burned Bass tabs (ver.1)

Artists:  A B C D E F G H I J K L M N O P Q R S T U V W X Y Z # 

To Keep From Getting Burned Bass tabs (ver.1)

Motionless In White Tabs
 Rating:
4/5 (5 votes)
To Keep From Getting Burned lessons Tabs too difficult? Try these video lessons and learn fast
1
                Artist - Motionless In White
Song - To Keep From Getting Burned
Album - When Love Met Destruction
Profile - horizonaflame

Great song by a great band, hope you enjoy this. Also look at my other bass tabs

Drop C CGCF

Intro x3             this part one time

F|-------------------|---------------|
C|-------------------|---------------|
G|-------------------|---------------|
C|-0x---00x00x-0x-0x-|-0x---00x00x0x-|

Verse x2
                                      ???           this x1
F|------------------------------------------|--------------|
C|------------------------------------------|--------------|
G|------------------------------------------|--------------|
C|-000x00000~-000x00000~-000x-0000-88875577-|-0x-00x00x00x-|

Chorus

F|-------|------|-------|--------|----|----|----|-----|
C|-------|------|-------|--------|----|----|----|-----|
G|-------|------|-------|--------|----|----|----|-----|
C|-0-x16-|-8x16-|-3-x16-|-10-x16-|-0~-|-8~-|-3~-|-10~-|

Post Chorus  x3 (fast, but not too hard i think)

F|-----------------|
C|-----------------|
G|-7h8p7p0-5h7p5p0-|
C|-----------------|

Post-Chorus cont. x2

F|-------------------------------------------------|--------------|
C|-------------------------------------------------|-9h12p9-------|
G|-------------------------------------------------|--------10h12-|
C|-0x-00x-0000x-00x00x-0000000x-0x-00x-0x-000x0x0x-|--------------|

Alt-Verse x2

F|-------------------------------------------------------------|
C|------------------------------------------------9h12p9-------|
G|-------------------------------------------------------10h12-|
C|-0x-00x-0000x-00x00x-0000000x0x-00x-0x-0000000x--------------|

Alt-Verse pt. 2 

F|----|----|----|----|
G|----|----|----|----|
C|----|----|----|----|
G|-0~-|-0~-|-0~-|-0~-|

Bridge (talking part)

F|----|-----|----|----|-------|--------|-------|-------|--------|-------|
C|----|-----|----|----|-------|--------|-------|-------|--------|-------|
G|----|-----|----|----|-------|--------|-------|-------|--------|-------|
C|-8~-|-10~-|-0~-|-0~-|-8-x16-|-10-x16-|-0-x32-|-8-x16-|-10-x16-|-0-x32-|

F|----------|
C|----------|
G|----------|
C|-0~-------|

1st Breakdown

F|-----------------------------|------------|
C|-----------------------------|------------|
G|-----------------------------|------------|
C|----------000x000x-----------|-12\--------|

This part x4

F|-------------|-----------------|
G|-------------|-----------------|
C|-------------|-----------------|
G|-00000~-000~-|-00000~-000x000x-|

Chorus one last time

F|-------|-------|-------|--------|
C|-------|-------|-------|--------|
G|-------|-------|-------|--------|
C|-0-x16-|-8-x16-|-3-x16-|-10-x32-|

2nd Breakdown (listen close for the bass part)

F|--------------|-----------------------------|
C|--------------|-----------------------------|
G|--------------|-----------------------------|
C|--0x----0x-0x-|-0x---0x0x0x-0x-0x0x0x0x0x0x-|

F|-----------------------------------|
C|-----------------------------------|
G|-----------------------------------|
C|-0x--0x0x0x-00000x0x-0~------------|

There it is, Please rate and comment, (more of this is to come!)

-Nick
            
Submit corrections

comments powered by Disqus
↑ Back to top | Motionless In White Bass for To Keep From Getting Burned. Lyrics for acoustic guitar and electric guitar. 1 Tablatures and chords are parodies/interpretations of the original songs. You may use it for private study, scholarship, research or language learning purposes only