» » »

Motionless In White, London In Terror Tabs (ver.1)

Artists:  A B C D E F G H I J K L M N O P Q R S T U V W X Y Z # 

London In Terror Tabs (ver.1)

Motionless In White Tabs
Rating:
4/5 (1 vote)
London In Terror lessons Tabs too difficult? Try these video lessons and learn fast
                i'm pretty sure i'm the first person to do the tabs for this song so enjoy!!! I worked 
it out from necrosadisticcannibals cover so credit to him for
being the first to cover such an epic song

/=slide
p=pull off
h=hammer on
*=palm mute



1st verse

D|-------------------------------------------------------------------------|
A|-------------------------------------------------------------------------|
F|-------------------------------------------------------------------------|
C|--3/-7p0--------------------------------10-------------------------------|
G|-------------------8h12-7h11-----12---8------8--7--8---------------------|
C|------------------------------8------------------------------------------|

D|-------------------------------------------------------------------------|
A|-------------------------------------------------------------------------|
F|-------------------------------------------------------------------------|
C|--3/-7p0-----------------------------------------------------------------|
G|------------------8h12--7h11-----7---8------10---------------------------|
C|------------------------------8-----------------8---------7--------------|



CHORUS

D|----------------------------------------------------------------------------------|
A|----------------------------------------------------------------------------------|
F|----------------------------------------------------------------------------------|
C|-0000-0000-0000-----0000-0000-0000-------------8888-8888-8888--5555-5555----------|
G|-0000-0000-0000-----0000-0000-0000-------------8888-8888-8888--5555-5555-55-777---|
C|-0000-0000-0000-----0000-0000-0000--0-0-0-0-0--8888-8888-8888--5555-5555-55-777---|
   **** **** ****     **** **** ****             **** **** ****  **** ****
D|-------------------------------------------------------------------------------|
A|-------------------------------------------------------------------------------|
F|-------------------------------------------------------------------------------|
C|-0000-0000-0000--------------8888-8888-8888-88-88-88---5555-5555-5555----------|
G|-0000-0000-0000--------------8888-8888-8888-88-88-88---5555-5555---------------|
C|-0000-0000-0000---0-0-0-0-0--8888-8888-8888-88-88-88---5555-5555-5555--55-777--|



2nd verse
D|--------------------------------------------------------------------------------------------|
A|--------------------------------------------------------------------------------------------|
F|--------------------------------------------------------------------------------------------|
C|--------------------------------------------------------------------------------------------|
G|-----------8h12-7h11---------------12-10-8-10-----------------8h12-7h11---------------------|
C|--00000000----------------00000000-------------------55555555-------------------------------|
    ********                ********                   ********
D|--------------------------------------------------------------------------------------------|
A|--------------------------------------------------------------------------------------------|
F|--------------------------------------------------------------------------------------------|
C|--------------------------------------------------------------------------------------------|
G|-----------12-10-8-10-------------8h12-7h11------------------12-10-8-10--------8h12-7h11----|
C|-55555555-----------------88888888----------------88888888------------77777777--------------|
   ********                 ********                ********            ********

D|--------------------------------------------------------------------------------------------|
A|--------------------------------------------------------------------------------------------|
F|--------------------------------------------------------------------------------------------|
C|--------------------------------------------------------------------------------------------|
G|---------------7-12-10-8-10-------------5h8-----5h8------5h8p5h8p5h8p5h8-4h7p4h7p4h7p4h7----|
C|--77777777----------------------0000000------00-------00------------------------------------|
    ********                      *******      **       **
D|--------------------------------------------------------------------------------------------|
A|--------------------------------------------------------------------------------------------|
F|--------------------------------------------------------------------------------------------|
G-------------5h8-------5h8-------5h8p5h8p5h8p5h8-4h7p4h7p4h7p4h7---------------5h8----5h8----|
C-8888888---------88------88---------------------------------------55555555---------55-----55-|
  *******         **      **                                       ********         **   
  **


D|--------------------------------------------------------------------------------------------|
A|--------------------------------------------------------------------------------------------|
F|--------------------------------------------------------------------------------------------|
C--------------------------------------------------------------------------------------0-0-0-0|
G--5h8p5h8p5h8p5h8-4h7p4h7p4h7p4h7--------------------5h8-------7h9--------7-8-10-8----0-0-0-0|
C------------------------------------------77777777---------77------9------------------0-0-0-0|
                                           ********         **

                                                                hold the sound for these 4
D|--------------------------------------|
A|--------------------------------------|
F|--------------------------------------|
C|-0-0-0-0-0----------------------------|
G|-0-0-0-0-0----------------------------|
C|-0-0-0-0-0----------------------------|
  stop them as soon as played per 1



CHORUS

D|------------------------------------------------------------------------|
A|------------------------------------------------------------------------|
F|------------------------------------------------------------------------|
C|-0000-0000-0000-----0000-0000-0000-------------8888-8888-8888--5555-5555|
G|-0000-0000-0000-----0000-0000-0000-------------8888-8888-8888--5555-5555|
C|-0000-0000-0000-----0000-0000-0000--0-0-0-0-0--8888-8888-8888--5555-5555|
   **** **** ****     **** **** ****             **** **** ****  **** ****
D|------------------------------------------------------------------------------|
A|------------------------------------------------------------------------------|
F|------------------------------------------------------------------------------|
C|-0000-0000-0000--------------8888-8888-8888-88-88-88---5555-5555-5555---------|
G|-0000-0000-0000--------------8888-8888-8888-88-88-88---5555-5555--------------|
C|-0000-0000-0000---0-0-0-0-0--8888-8888-8888-88-88-88---5555-5555-5555--55-777-|


MARYLIN MANSON PART

D|-----------------------------------------------------------------|
A|-----------------------------------------------------------------|
F|-----------------------------------------------------------------|
C|-----000000000000--8888888888--5555------------------------------|
G|-----000000000000--8888888888--5555------------------------------|
C|-----000000000000--8888888888--5555------------------------------|

played 4 times

D|-------------------|
A|-------------------|
F|-------------------|
C|-------------------|
G|--0000-00-00-------|
C|--0000-00-00-------|

hold notes then the chugs come which you could probably work out
            

comments powered by Disqus
↑ Back to top | Motionless In White Tabs for London In Terror. Lyrics for acoustic guitar and electric guitar. Tablatures and chords are parodies/interpretations of the original songs. You may use it for private study, scholarship, research or language learning purposes only